  0
SECTION
  2
HEADER
  9
$ACADVER
  1
AC1015
  9
$ACADMAINTVER
 70
    20
  9
$DWGCODEPAGE
  3
ANSI_1252
  9
$INSBASE
 10
286.2603699483316
 20
183.3239991855494
 30
0.0
  9
$EXTMIN
 10
227.6879895242025
 20
124.7530525945511
 30
-0.0015258207003583
  9
$EXTMAX
 10
344.8388680778896
 20
241.9016424730672
 30
1.478576696802143
  9
$LIMMIN
 10
0.0
 20
0.0
  9
$LIMMAX
 10
420.0
 20
297.0
  9
$ORTHOMODE
 70
     0
  9
$REGENMODE
 70
     1
  9
$FILLMODE
 70
     1
  9
$QTEXTMODE
 70
     0
  9
$MIRRTEXT
 70
     0
  9
$LTSCALE
 40
1.0
  9
$ATTMODE
 70
     1
  9
$TEXTSIZE
 40
2.5
  9
$TRACEWID
 40
1.0
  9
$TEXTSTYLE
  7
Standard
  9
$CLAYER
  8
0
  9
$CELTYPE
  6
ByLayer
  9
$CECOLOR
 62
   256
  9
$CELTSCALE
 40
1.0
  9
$DISPSILH
 70
     0
  9
$DIMSCALE
 40
1.0
  9
$DIMASZ
 40
2.5
  9
$DIMEXO
 40
0.625
  9
$DIMDLI
 40
3.75
  9
$DIMRND
 40
0.0
  9
$DIMDLE
 40
0.0
  9
$DIMEXE
 40
1.25
  9
$DIMTP
 40
0.0
  9
$DIMTM
 40
0.0
  9
$DIMTXT
 40
2.5
  9
$DIMCEN
 40
2.5
  9
$DIMTSZ
 40
0.0
  9
$DIMTOL
 70
     0
  9
$DIMLIM
 70
     0
  9
$DIMTIH
 70
     0
  9
$DIMTOH
 70
     0
  9
$DIMSE1
 70
     0
  9
$DIMSE2
 70
     0
  9
$DIMTAD
 70
     1
  9
$DIMZIN
 70
     8
  9
$DIMBLK
  1

  9
$DIMASO
 70
     1
  9
$DIMSHO
 70
     1
  9
$DIMPOST
  1

  9
$DIMAPOST
  1

  9
$DIMALT
 70
     0
  9
$DIMALTD
 70
     3
  9
$DIMALTF
 40
0.03937007874016
  9
$DIMLFAC
 40
1.0
  9
$DIMTOFL
 70
     1
  9
$DIMTVP
 40
0.0
  9
$DIMTIX
 70
     0
  9
$DIMSOXD
 70
     0
  9
$DIMSAH
 70
     0
  9
$DIMBLK1
  1

  9
$DIMBLK2
  1

  9
$DIMSTYLE
  2
ISO-25
  9
$DIMCLRD
 70
     0
  9
$DIMCLRE
 70
     0
  9
$DIMCLRT
 70
     0
  9
$DIMTFAC
 40
1.0
  9
$DIMGAP
 40
0.625
  9
$DIMJUST
 70
     0
  9
$DIMSD1
 70
     0
  9
$DIMSD2
 70
     0
  9
$DIMTOLJ
 70
     0
  9
$DIMTZIN
 70
     8
  9
$DIMALTZ
 70
     0
  9
$DIMALTTZ
 70
     0
  9
$DIMUPT
 70
     0
  9
$DIMDEC
 70
     2
  9
$DIMTDEC
 70
     2
  9
$DIMALTU
 70
     2
  9
$DIMALTTD
 70
     3
  9
$DIMTXSTY
  7
Standard
  9
$DIMAUNIT
 70
     0
  9
$DIMADEC
 70
     0
  9
$DIMALTRND
 40
0.0
  9
$DIMAZIN
 70
     0
  9
$DIMDSEP
 70
    44
  9
$DIMATFIT
 70
     3
  9
$DIMFRAC
 70
     0
  9
$DIMLDRBLK
  1

  9
$DIMLUNIT
 70
     2
  9
$DIMLWD
 70
    -2
  9
$DIMLWE
 70
    -2
  9
$DIMTMOVE
 70
     0
  9
$LUNITS
 70
     2
  9
$LUPREC
 70
     4
  9
$SKETCHINC
 40
1.0
  9
$FILLETRAD
 40
0.0
  9
$AUNITS
 70
     0
  9
$AUPREC
 70
     0
  9
$MENU
  1
.
  9
$ELEVATION
 40
0.0
  9
$PELEVATION
 40
0.0
  9
$THICKNESS
 40
0.0
  9
$LIMCHECK
 70
     0
  9
$CHAMFERA
 40
0.0
  9
$CHAMFERB
 40
0.0
  9
$CHAMFERC
 40
0.0
  9
$CHAMFERD
 40
0.0
  9
$SKPOLY
 70
     0
  9
$TDCREATE
 40
2453809.386277489
  9
$TDUCREATE
 40
2453809.344610822
  9
$TDUPDATE
 40
2453809.486111111
  9
$TDUUPDATE
 40
2453809.444444444
  9
$TDINDWG
 40
0.0607830671
  9
$TDUSRTIMER
 40
0.0607830671
  9
$USRTIMER
 70
     1
  9
$ANGBASE
 50
0.0
  9
$ANGDIR
 70
     0
  9
$PDMODE
 70
     0
  9
$PDSIZE
 40
0.0
  9
$PLINEWID
 40
0.0
  9
$SPLFRAME
 70
     0
  9
$SPLINETYPE
 70
     6
  9
$SPLINESEGS
 70
     8
  9
$HANDSEED
  5
DC
  9
$SURFTAB1
 70
     6
  9
$SURFTAB2
 70
     6
  9
$SURFTYPE
 70
     6
  9
$SURFU
 70
     6
  9
$SURFV
 70
     6
  9
$UCSBASE
  2

  9
$UCSNAME
  2

  9
$UCSORG
 10
0.0
 20
0.0
 30
0.0
  9
$UCSXDIR
 10
1.0
 20
0.0
 30
0.0
  9
$UCSYDIR
 10
0.0
 20
1.0
 30
0.0
  9
$UCSORTHOREF
  2

  9
$UCSORTHOVIEW
 70
     0
  9
$UCSORGTOP
 10
0.0
 20
0.0
 30
0.0
  9
$UCSORGBOTTOM
 10
0.0
 20
0.0
 30
0.0
  9
$UCSORGLEFT
 10
0.0
 20
0.0
 30
0.0
  9
$UCSORGRIGHT
 10
0.0
 20
0.0
 30
0.0
  9
$UCSORGFRONT
 10
0.0
 20
0.0
 30
0.0
  9
$UCSORGBACK
 10
0.0
 20
0.0
 30
0.0
  9
$PUCSBASE
  2

  9
$PUCSNAME
  2

  9
$PUCSORG
 10
0.0
 20
0.0
 30
0.0
  9
$PUCSXDIR
 10
1.0
 20
0.0
 30
0.0
  9
$PUCSYDIR
 10
0.0
 20
1.0
 30
0.0
  9
$PUCSORTHOREF
  2

  9
$PUCSORTHOVIEW
 70
     0
  9
$PUCSORGTOP
 10
0.0
 20
0.0
 30
0.0
  9
$PUCSORGBOTTOM
 10
0.0
 20
0.0
 30
0.0
  9
$PUCSORGLEFT
 10
0.0
 20
0.0
 30
0.0
  9
$PUCSORGRIGHT
 10
0.0
 20
0.0
 30
0.0
  9
$PUCSORGFRONT
 10
0.0
 20
0.0
 30
0.0
  9
$PUCSORGBACK
 10
0.0
 20
0.0
 30
0.0
  9
$USERI1
 70
     0
  9
$USERI2
 70
     0
  9
$USERI3
 70
     0
  9
$USERI4
 70
     0
  9
$USERI5
 70
     0
  9
$USERR1
 40
0.0
  9
$USERR2
 40
0.0
  9
$USERR3
 40
0.0
  9
$USERR4
 40
0.0
  9
$USERR5
 40
0.0
  9
$WORLDVIEW
 70
     1
  9
$SHADEDGE
 70
     3
  9
$SHADEDIF
 70
    70
  9
$TILEMODE
 70
     1
  9
$MAXACTVP
 70
    64
  9
$PINSBASE
 10
0.0
 20
0.0
 30
0.0
  9
$PLIMCHECK
 70
     0
  9
$PEXTMIN
 10
1.000000000000000E+20
 20
1.000000000000000E+20
 30
1.000000000000000E+20
  9
$PEXTMAX
 10
-1.000000000000000E+20
 20
-1.000000000000000E+20
 30
-1.000000000000000E+20
  9
$PLIMMIN
 10
0.0
 20
0.0
  9
$PLIMMAX
 10
420.0
 20
297.0
  9
$UNITMODE
 70
     0
  9
$VISRETAIN
 70
     1
  9
$PLINEGEN
 70
     0
  9
$PSLTSCALE
 70
     1
  9
$TREEDEPTH
 70
  3020
  9
$CMLSTYLE
  2
Standard
  9
$CMLJUST
 70
     0
  9
$CMLSCALE
 40
20.0
  9
$PROXYGRAPHICS
 70
     1
  9
$MEASUREMENT
 70
     1
  9
$CELWEIGHT
370
    -1
  9
$ENDCAPS
280
     0
  9
$JOINSTYLE
280
     0
  9
$LWDISPLAY
290
     0
  9
$INSUNITS
 70
     4
  9
$HYPERLINKBASE
  1

  9
$STYLESHEET
  1

  9
$XEDIT
290
     1
  9
$CEPSNTYPE
380
     0
  9
$PSTYLEMODE
290
     1
  9
$FINGERPRINTGUID
  2
{D5BD9BC0-E436-4508-9685-5886F46892A9}
  9
$VERSIONGUID
  2
{D3577575-2E67-4300-92D4-4920F83C35B3}
  9
$EXTNAMES
290
     1
  9
$PSVPSCALE
 40
0.0
  9
$OLESTARTUP
290
     0
  0
ENDSEC
  0
SECTION
  2
CLASSES
  0
CLASS
  1
ACDBDICTIONARYWDFLT
  2
AcDbDictionaryWithDefault
  3
ObjectDBX Classes
 90
        0
280
     0
281
     0
  0
CLASS
  1
TABLESTYLE
  2
AcDbTableStyle
  3
ObjectDBX Classes
 90
     2047
280
     0
281
     0
  0
CLASS
  1
SORTENTSTABLE
  2
AcDbSortentsTable
  3
ObjectDBX Classes
 90
        0
280
     0
281
     0
  0
CLASS
  1
DICTIONARYVAR
  2
AcDbDictionaryVar
  3
ObjectDBX Classes
 90
        0
280
     0
281
     0
  0
CLASS
  1
ACDBPLACEHOLDER
  2
AcDbPlaceHolder
  3
ObjectDBX Classes
 90
        0
280
     0
281
     0
  0
CLASS
  1
LAYOUT
  2
AcDbLayout
  3
ObjectDBX Classes
 90
        0
280
     0
281
     0
  0
ENDSEC
  0
SECTION
  2
TABLES
  0
TABLE
  2
VPORT
  5
1B
330
0
100
AcDbSymbolTable
 70
     3
  0
VPORT
  5
D6
330
1B
100
AcDbSymbolTableRecord
100
AcDbViewportTableRecord
  2
*Active
 70
     0
 10
0.0
 20
0.0
 11
1.0
 21
1.0
 12
286.2634288010461
 22
183.3273475338092
 13
0.0
 23
0.0
 14
10.0
 24
10.0
 15
10.0
 25
10.0
 16
0.0
 26
0.0
 36
1.0
 17
0.0
 27
0.0
 37
0.0
 40
118.5889413934158
 41
1.985626283367556
 42
50.0
 43
0.0
 44
0.0
 50
0.0
 51
0.0
 71
     0
 72
  1000
 73
     1
 74
     3
 75
     0
 76
     0
 77
     0
 78
     0
281
     0
 65
     1
110
0.0
120
0.0
130
0.0
111
1.0
121
0.0
131
0.0
112
0.0
122
1.0
132
0.0
 79
     0
146
0.0
  0
ENDTAB
  0
TABLE
  2
LTYPE
  5
16
330
0
100
AcDbSymbolTable
 70
     2
  0
LTYPE
  5
17
330
16
100
AcDbSymbolTableRecord
100
AcDbLinetypeTableRecord
  2
ByBlock
 70
     0
  3

 72
    65
 73
     0
 40
0.0
  0
LTYPE
  5
18
330
16
100
AcDbSymbolTableRecord
100
AcDbLinetypeTableRecord
  2
ByLayer
 70
     0
  3

 72
    65
 73
     0
 40
0.0
  0
LTYPE
  5
8
330
16
100
AcDbSymbolTableRecord
100
AcDbLinetypeTableRecord
  2
Continuous
 70
     0
  3
Solid line
 72
    65
 73
     0
 40
0.0
  0
LTYPE
  5
58
330
16
100
AcDbSymbolTableRecord
100
AcDbLinetypeTableRecord
  2
DASHED
 70
     0
  3
__ __ __ __ __ __ __ __ __ __ __ __ __ __ __ __
 72
    65
 73
     2
 40
0.75
 49
0.5
 74
     0
 49
-0.25
 74
     0
  0
ENDTAB
  0
TABLE
  2
LAYER
  5
10
102
{ACAD_XDICTIONARY
360
11
102
}
330
0
100
AcDbSymbolTable
 70
     1
  0
LAYER
  5
4
330
10
100
AcDbSymbolTableRecord
100
AcDbLayerTableRecord
  2
0
 70
     0
 62
     7
  6
Continuous
370
    -3
390
5
  0
ENDTAB
  0
TABLE
  2
STYLE
  5
13
330
0
100
AcDbSymbolTable
 70
     2
  0
STYLE
  5
14
330
13
100
AcDbSymbolTableRecord
100
AcDbTextStyleTableRecord
  2
Standard
 70
     0
 40
0.0
 41
1.0
 50
0.0
 71
     0
 42
2.5
  3
txt
  4

  0
STYLE
  5
BE
330
13
100
AcDbSymbolTableRecord
100
AcDbTextStyleTableRecord
  2
SST
 70
     0
 40
0.0
 41
1.0
 50
0.0
 71
     0
 42
3.5
  3
romans.shx
  4

  0
ENDTAB
  0
TABLE
  2
VIEW
  5
19
330
0
100
AcDbSymbolTable
 70
     1
  0
ENDTAB
  0
TABLE
  2
UCS
  5
1A
330
0
100
AcDbSymbolTable
 70
     0
  0
ENDTAB
  0
TABLE
  2
APPID
  5
1D
330
0
100
AcDbSymbolTable
 70
     1
  0
APPID
  5
1E
330
1D
100
AcDbSymbolTableRecord
100
AcDbRegAppTableRecord
  2
ACAD
 70
     0
  0
ENDTAB
  0
TABLE
  2
DIMSTYLE
  5
1F
330
0
100
AcDbSymbolTable
 70
     1
100
AcDbDimStyleTable
 71
     0
  0
DIMSTYLE
105
29
330
1F
100
AcDbSymbolTableRecord
100
AcDbDimStyleTableRecord
  2
ISO-25
 70
     0
 41
2.5
 42
0.625
 43
3.75
 44
1.25
 73
     0
 74
     0
 77
     1
 78
     8
140
2.5
141
2.5
143
0.03937007874016
147
0.625
171
     3
172
     1
271
     2
272
     2
274
     3
278
    44
283
     0
284
     8
340
14
  0
ENDTAB
  0
TABLE
  2
BLOCK_RECORD
  5
1
330
0
100
AcDbSymbolTable
 70
     1
  0
BLOCK_RECORD
  5
2
330
1
100
AcDbSymbolTableRecord
100
AcDbBlockTableRecord
  2
*Model_Space
340
A
  0
BLOCK_RECORD
  5
C
330
1
100
AcDbSymbolTableRecord
100
AcDbBlockTableRecord
  2
*Paper_Space
340
F
  0
BLOCK_RECORD
  5
B9
102
{ACAD_XDICTIONARY
360
BA
102
}
330
1
100
AcDbSymbolTableRecord
100
AcDbBlockTableRecord
  2
SST_STEMPEL
340
0
102
{BLKREFS
331
B8
102
}
  0
ENDTAB
  0
ENDSEC
  0
SECTION
  2
BLOCKS
  0
BLOCK
  5
3
330
2
100
AcDbEntity
  8
0
100
AcDbBlockBegin
  2
*Model_Space
 70
     0
 10
0.0
 20
0.0
 30
0.0
  3
*Model_Space
  1

  0
ENDBLK
  5
9
330
2
100
AcDbEntity
  8
0
100
AcDbBlockEnd
  0
BLOCK
  5
D
330
C
100
AcDbEntity
 67
     1
  8
0
100
AcDbBlockBegin
  2
*Paper_Space
 70
     0
 10
0.0
 20
0.0
 30
0.0
  3
*Paper_Space
  1

  0
ENDBLK
  5
E
330
C
100
AcDbEntity
 67
     1
  8
0
100
AcDbBlockEnd
  0
BLOCK
  5
BC
330
B9
100
AcDbEntity
  8
0
100
AcDbBlockBegin
  2
SST_STEMPEL
 70
     0
 10
0.0
 20
0.0
 30
0.0
  3
SST_STEMPEL
  1

  0
TEXT
  5
BD
330
B9
100
AcDbEntity
  8
0
  6
Continuous
100
AcDbText
 10
-3.741149563515705
 20
3.992811447199528
 30
0.0
 40
2.0
  1
SIMPSON
 50
316.9414863909134
  7
SST
100
AcDbText
  0
TEXT
  5
BF
330
B9
100
AcDbEntity
  8
0
  6
Continuous
100
AcDbText
 10
-6.656222857237139
 20
3.112015578657064
 30
0.0
 40
2.0
  1
Strong-Tie
 50
316.9414863909134
  7
SST
100
AcDbText
  0
ENDBLK
  5
C0
330
B9
100
AcDbEntity
  8
0
100
AcDbBlockEnd
  0
ENDSEC
  0
SECTION
  2
ENTITIES
  0
LINE
  5
2A
330
2
100
AcDbEntity
  8
0
100
AcDbLine
 10
255.6161319531839
 20
181.5685231876246
 30
0.0
 11
256.2547510184686
 21
182.6747853946558
 31
0.0
  0
LINE
  5
2B
330
2
100
AcDbEntity
  8
0
100
AcDbLine
 10
256.2547510184686
 20
182.6747853946558
 30
0.0
 11
256.2501018561761
 21
183.9462716770044
 31
0.0
  0
LINE
  5
2C
330
2
100
AcDbEntity
  8
0
100
AcDbLine
 10
256.2501018561761
 20
183.9462716770044
 30
0.0
 11
255.6159829415719
 21
185.0513417911402
 31
0.0
  0
LINE
  5
2D
330
2
100
AcDbEntity
  8
0
100
AcDbLine
 10
255.6159829415719
 20
185.0513417911402
 30
0.0
 11
254.5115982808511
 21
185.6905420017115
 31
0.0
  0
LINE
  5
2E
330
2
100
AcDbEntity
  8
0
100
AcDbLine
 10
254.5115982808511
 20
185.6905420017115
 30
0.0
 11
253.2335256852548
 21
185.6881578159205
 31
0.0
  0
LINE
  5
2F
330
2
100
AcDbEntity
  8
0
100
AcDbLine
 10
253.2335256852548
 20
185.6881578159205
 30
0.0
 11
252.1312569894235
 21
185.050864953982
 31
0.0
  0
LINE
  5
30
330
2
100
AcDbEntity
  8
0
100
AcDbLine
 10
252.1312569894235
 20
185.050864953982
 30
0.0
 11
251.4952009238641
 21
183.9493711185328
 31
0.0
  0
LINE
  5
31
330
2
100
AcDbEntity
  8
0
100
AcDbLine
 10
251.4952009238641
 20
183.9493711185328
 30
0.0
 11
251.4922504939477
 21
182.6697786044947
 31
0.0
  0
LINE
  5
32
330
2
100
AcDbEntity
  8
0
100
AcDbLine
 10
251.4922504939477
 20
182.6697786044947
 30
0.0
 11
252.1315103091638
 21
181.5678079318873
 31
0.0
  0
LINE
  5
33
330
2
100
AcDbEntity
  8
0
100
AcDbLine
 10
252.1315103091638
 20
181.5678079318873
 30
0.0
 11
253.2366251267831
 21
180.9330184650293
 31
0.0
  0
LINE
  5
34
330
2
100
AcDbEntity
  8
0
100
AcDbLine
 10
254.5103763856332
 20
180.9302766513697
 30
0.0
 11
255.6161319531839
 21
181.5685231876246
 31
0.0
  0
LINE
  5
35
330
2
100
AcDbEntity
  8
0
100
AcDbLine
 10
253.2366251267831
 20
180.9330184650293
 30
0.0
 11
254.5103763856332
 21
180.9302766513697
 31
0.0
  0
LINE
  5
36
330
2
100
AcDbEntity
  8
0
100
AcDbLine
 10
316.2645434655587
 20
183.9572389316431
 30
0.0
 11
316.2613546170633
 21
182.6852758121363
 31
0.0
  0
LINE
  5
37
330
2
100
AcDbEntity
  8
0
100
AcDbLine
 10
316.2613546170633
 20
182.6852758121363
 30
0.0
 11
316.8996309556405
 21
181.5792520236841
 31
0.0
  0
LINE
  5
38
330
2
100
AcDbEntity
  8
0
100
AcDbLine
 10
318.0029725350778
 20
185.7017476749292
 30
0.0
 11
316.8993925370614
 21
185.0623090457789
 31
0.0
  0
LINE
  5
39
330
2
100
AcDbEntity
  8
0
100
AcDbLine
 10
316.8993925370614
 20
185.0623090457789
 30
0.0
 11
316.2645434655587
 21
183.9572389316431
 31
0.0
  0
LINE
  5
3A
330
2
100
AcDbEntity
  8
0
100
AcDbLine
 10
320.3822409428994
 20
185.0623090457789
 30
0.0
 11
319.2808961190622
 21
185.6981713962427
 31
0.0
  0
LINE
  5
3B
330
2
100
AcDbEntity
  8
0
100
AcDbLine
 10
319.2808961190622
 20
185.6981713962427
 30
0.0
 11
318.0029725350778
 21
185.7017476749292
 31
0.0
  0
LINE
  5
3C
330
2
100
AcDbEntity
  8
0
100
AcDbLine
 10
321.0225438393991
 20
182.680030603396
 30
0.0
 11
321.0195934094827
 21
183.9603383731714
 31
0.0
  0
LINE
  5
3D
330
2
100
AcDbEntity
  8
0
100
AcDbLine
 10
321.0195934094827
 20
183.9603383731714
 30
0.0
 11
320.3822409428994
 21
185.0623090457789
 31
0.0
  0
LINE
  5
3E
330
2
100
AcDbEntity
  8
0
100
AcDbLine
 10
319.2779456891458
 20
180.9435088825098
 30
0.0
 11
320.3829561986367
 21
181.5778215122095
 31
0.0
  0
LINE
  5
3F
330
2
100
AcDbEntity
  8
0
100
AcDbLine
 10
320.3829561986367
 20
181.5778215122095
 30
0.0
 11
321.0225438393991
 21
182.680030603396
 31
0.0
  0
LINE
  5
40
330
2
100
AcDbEntity
  8
0
100
AcDbLine
 10
318.0057441510598
 20
180.9407670688501
 30
0.0
 11
319.2779456891458
 21
180.9435088825098
 31
0.0
  0
LINE
  5
41
330
2
100
AcDbEntity
  8
0
100
AcDbLine
 10
316.8996309556405
 20
181.5792520236841
 30
0.0
 11
318.0057441510598
 21
180.9407670688501
 31
0.0
  0
POINT
  5
42
330
2
100
AcDbEntity
  8
0
100
AcDbPoint
 10
286.2603699483316
 20
183.3239991855494
 30
0.0
  0
POINT
  5
43
330
2
100
AcDbEntity
  8
0
100
AcDbPoint
 10
286.2603699483316
 20
183.3239991855494
 30
0.0
  0
POINT
  5
44
330
2
100
AcDbEntity
  8
0
100
AcDbPoint
 10
286.2603699483316
 20
183.3239991855494
 30
0.0
  0
POINT
  5
45
330
2
100
AcDbEntity
  8
0
100
AcDbPoint
 10
286.2603699483316
 20
183.3239991855494
 30
0.0
  0
POINT
  5
46
330
2
100
AcDbEntity
  8
0
100
AcDbPoint
 10
286.2603699483316
 20
183.3239991855494
 30
0.0
  0
POINT
  5
47
330
2
100
AcDbEntity
  8
0
100
AcDbPoint
 10
286.2603699483316
 20
183.3239991855494
 30
0.0
  0
POINT
  5
48
330
2
100
AcDbEntity
  8
0
100
AcDbPoint
 10
286.2603699483316
 20
183.3239991855494
 30
0.0
  0
POINT
  5
49
330
2
100
AcDbEntity
  8
0
100
AcDbPoint
 10
286.2603699483316
 20
183.3239991855494
 30
0.0
  0
POINT
  5
4A
330
2
100
AcDbEntity
  8
0
100
AcDbPoint
 10
286.2603699483316
 20
183.3239991855494
 30
0.0
  0
POINT
  5
4B
330
2
100
AcDbEntity
  8
0
100
AcDbPoint
 10
286.2603699483316
 20
183.3239991855494
 30
0.0
  0
POINT
  5
4C
330
2
100
AcDbEntity
  8
0
100
AcDbPoint
 10
286.2603699483316
 20
183.3239991855494
 30
0.0
  0
POINT
  5
4D
330
2
100
AcDbEntity
  8
0
100
AcDbPoint
 10
286.2603699483316
 20
183.3239991855494
 30
0.0
  0
POINT
  5
4E
330
2
100
AcDbEntity
  8
0
100
AcDbPoint
 10
286.2603699483316
 20
183.3239991855494
 30
0.0
  0
CIRCLE
  5
4F
330
2
100
AcDbEntity
  8
0
100
AcDbCircle
 39
1.199999940581619
 10
286.2603699483316
 20
183.3239991855494
 30
0.0
 40
12.35
  0
CIRCLE
  5
50
330
2
100
AcDbEntity
  8
0
100
AcDbCircle
 39
1.199999940581619
 10
286.2603699483316
 20
183.3239991855494
 30
0.0
 40
13.85
  0
LINE
  5
51
330
2
100
AcDbEntity
  8
0
100
AcDbLine
 10
286.2603699483316
 20
140.4993732166162
 30
0.0
 11
290.6564211167733
 21
154.9082000446192
 31
0.0
  0
LINE
  5
52
330
2
100
AcDbEntity
  8
0
100
AcDbLine
 10
290.1987170495431
 20
153.4073550891748
 30
0.0
 11
282.3222910680215
 21
153.4073550891748
 31
0.0
  0
LINE
  5
53
330
2
100
AcDbEntity
  8
0
100
AcDbLine
 10
281.8643783845346
 20
154.9078424167505
 30
0.0
 11
286.2603699483316
 21
140.4993732166162
 31
0.0
  0
LINE
  5
54
330
2
100
AcDbEntity
  8
0
100
AcDbLine
 10
290.6564211167733
 20
154.9082000446192
 30
0.0
 11
281.8643783845346
 21
154.9078424167505
 31
0.0
  0
LINE
  5
55
330
2
100
AcDbEntity
  8
0
100
AcDbLine
 39
1.477894722484052
 10
286.2603699483316
 20
153.4075935077539
 30
0.0
 11
286.2603699483316
 21
154.9078424167505
 31
0.0
  0
LINE
  5
56
330
2
100
AcDbEntity
  8
0
100
AcDbLine
 10
286.2603699483316
 20
124.824543733584
 30
0.0
 11
298.6230587281625
 21
137.1864278507105
 31
0.0
  0
LINE
  5
57
330
2
100
AcDbEntity
  8
0
  6
DASHED
100
AcDbLine
 10
273.7786208905618
 20
135.1881225299707
 30
0.0
 11
273.9003931798379
 21
137.1888120365015
 31
0.0
  0
LINE
  5
59
330
2
100
AcDbEntity
  8
0
100
AcDbLine
 10
273.7786208905618
 20
135.1881225299707
 30
0.0
 11
284.200045994703
 21
124.7637469959131
 31
0.0
  0
LINE
  5
5A
330
2
100
AcDbEntity
  8
0
100
AcDbLine
 10
286.2615918435495
 20
124.8234708499781
 30
0.0
 11
284.1991817273538
 21
124.7643430423609
 31
0.0
  0
LINE
  5
5B
330
2
100
AcDbEntity
  8
0
100
AcDbLine
 39
1.477894722484052
 10
278.9892589368264
 20
129.9756963443628
 30
0.0
 11
280.080172947828
 21
131.0048301410547
 31
0.0
  0
LINE
  5
5C
330
2
100
AcDbEntity
  8
0
100
AcDbLine
 10
273.8986944474618
 20
137.1872623157373
 30
0.0
 11
286.2603699483316
 21
124.824543733584
 31
0.0
  0
LINE
  5
5D
330
2
100
AcDbEntity
  8
0
100
AcDbLine
 10
323.3477508344094
 20
161.911626596438
 30
0.0
 11
313.0673801221292
 21
172.9232270908228
 31
0.0
  0
LINE
  5
5E
330
2
100
AcDbEntity
  8
0
100
AcDbLine
 10
314.1381775655191
 20
171.7764337253443
 30
0.0
 11
310.2000092782418
 21
164.9552781772486
 31
0.0
  0
LINE
  5
5F
330
2
100
AcDbEntity
  8
0
100
AcDbLine
 10
308.6715077676217
 20
165.3089721393457
 30
0.0
 11
323.3477508344094
 21
161.911626596438
 31
0.0
  0
LINE
  5
60
330
2
100
AcDbEntity
  8
0
100
AcDbLine
 10
313.0673801221292
 20
172.9232270908228
 30
0.0
 11
308.6715077676217
 21
165.3089721393457
 31
0.0
  0
LINE
  5
61
330
2
100
AcDbEntity
  8
0
100
AcDbLine
 39
1.477894722484052
 10
312.1688699044625
 20
168.365975160586
 30
0.0
 11
310.869488648359
 21
169.1159208011499
 31
0.0
  0
LINE
  5
62
330
2
100
AcDbEntity
  8
0
100
AcDbLine
 10
323.3477508344094
 20
204.7366101932398
 30
0.0
 11
308.6712693490426
 21
201.3391454410426
 31
0.0
  0
LINE
  5
63
330
2
100
AcDbEntity
  8
0
100
AcDbLine
 10
310.1998602666299
 20
201.6929586124293
 30
0.0
 11
314.1381477631967
 21
194.8720414829126
 31
0.0
  0
LINE
  5
64
330
2
100
AcDbEntity
  8
0
100
AcDbLine
 10
313.0675291337411
 20
193.7252481174341
 30
0.0
 11
323.3477508344094
 21
204.7366101932398
 31
0.0
  0
LINE
  5
65
330
2
100
AcDbEntity
  8
0
100
AcDbLine
 10
308.6712693490426
 20
201.3391454410426
 30
0.0
 11
313.0675291337411
 21
193.7252481174341
 31
0.0
  0
LINE
  5
66
330
2
100
AcDbEntity
  8
0
100
AcDbLine
 39
1.477894722484052
 10
312.1688401021402
 20
198.2823808383814
 30
0.0
 11
310.869488648359
 21
197.5320775699488
 31
0.0
  0
LINE
  5
67
330
2
100
AcDbEntity
  8
0
100
AcDbLine
 10
286.2603699483316
 20
226.1487443637721
 30
0.0
 11
281.8642293729226
 21
211.7399175357691
 31
0.0
  0
LINE
  5
68
330
2
100
AcDbEntity
  8
0
100
AcDbLine
 10
282.3221122540872
 20
213.2407624912135
 30
0.0
 11
290.198478630964
 21
213.2407624912135
 31
0.0
  0
LINE
  5
69
330
2
100
AcDbEntity
  8
0
100
AcDbLine
 10
290.6563317098062
 20
211.7401559543482
 30
0.0
 11
286.2603699483316
 21
226.1487443637721
 31
0.0
  0
LINE
  5
6A
330
2
100
AcDbEntity
  8
0
100
AcDbLine
 10
281.8642293729226
 20
211.7399175357691
 30
0.0
 11
290.6563317098062
 21
211.7401559543482
 31
0.0
  0
LINE
  5
6B
330
2
100
AcDbEntity
  8
0
100
AcDbLine
 39
1.477894722484052
 10
286.2603699483316
 20
213.2405240726344
 30
0.0
 11
286.2603401460092
 21
211.7401559543482
 31
0.0
  0
LINE
  5
6C
330
2
100
AcDbEntity
  8
0
100
AcDbLine
 10
249.1730635680597
 20
204.7363717746607
 30
0.0
 11
259.4533895768563
 21
193.7247712802759
 31
0.0
  0
LINE
  5
6D
330
2
100
AcDbEntity
  8
0
100
AcDbLine
 10
258.3826815404336
 20
194.8715646457544
 30
0.0
 11
262.3207604207437
 21
201.6929586124293
 31
0.0
  0
LINE
  5
6E
330
2
100
AcDbEntity
  8
0
100
AcDbLine
 10
263.8492470302026
 20
201.3391454410426
 30
0.0
 11
249.1730635680597
 21
204.7363717746607
 31
0.0
  0
LINE
  5
6F
330
2
100
AcDbEntity
  8
0
100
AcDbLine
 10
259.4533895768563
 20
193.7247712802759
 30
0.0
 11
263.8492470302026
 21
201.3391454410426
 31
0.0
  0
LINE
  5
70
330
2
100
AcDbEntity
  8
0
100
AcDbLine
 39
1.477894722484052
 10
260.3519892014901
 20
198.2823808383814
 30
0.0
 11
261.6512661494653
 21
197.5320775699488
 31
0.0
  0
LINE
  5
71
330
2
100
AcDbEntity
  8
0
100
AcDbLine
 10
249.1731529750268
 20
161.911626596438
 30
0.0
 11
263.8495897569101
 21
165.3087337207666
 31
0.0
  0
LINE
  5
72
330
2
100
AcDbEntity
  8
0
100
AcDbLine
 10
262.3210435428064
 20
164.9549205493799
 30
0.0
 11
258.3827262439172
 21
171.7761953067652
 31
0.0
  0
LINE
  5
73
330
2
100
AcDbEntity
  8
0
100
AcDbLine
 10
259.4533448733728
 20
172.9229886722437
 30
0.0
 11
249.1731529750268
 21
161.911626596438
 31
0.0
  0
LINE
  5
74
330
2
100
AcDbEntity
  8
0
100
AcDbLine
 10
263.8495897569101
 20
165.3087337207666
 30
0.0
 11
259.4533448733728
 21
172.9229886722437
 31
0.0
  0
LINE
  5
75
330
2
100
AcDbEntity
  8
0
100
AcDbLine
 39
1.477894722484052
 10
260.3520786084573
 20
168.3657367420069
 30
0.0
 11
261.6513704575937
 21
169.1159208011499
 31
0.0
  0
LINE
  5
76
330
2
100
AcDbEntity
  8
0
100
AcDbLine
 10
315.5100976743142
 20
132.6619584751001
 30
0.0
 11
320.0356101312082
 21
149.5490272235743
 31
0.0
  0
LINE
  5
77
330
2
100
AcDbEntity
  8
0
  6
DASHED
100
AcDbLine
 10
299.5187675275247
 20
135.3962619495264
 30
0.0
 11
298.6239229955117
 21
137.1898849201075
 31
0.0
  0
LINE
  5
78
330
2
100
AcDbEntity
  8
0
100
AcDbLine
 10
299.5187675275247
 20
135.3962619495264
 30
0.0
 11
313.7562310017984
 21
131.5790612888208
 31
0.0
  0
LINE
  5
79
330
2
100
AcDbEntity
  8
0
100
AcDbLine
 10
315.5117368020456
 20
132.6614816379419
 30
0.0
 11
313.7551581181924
 21
131.5791804981104
 31
0.0
  0
LINE
  5
7A
330
2
100
AcDbEntity
  8
0
100
AcDbLine
 39
1.477894722484052
 10
306.6375886716287
 20
133.4874828052393
 30
0.0
 11
307.0677851952951
 21
134.9241931629053
 31
0.0
  0
LINE
  5
7B
330
2
100
AcDbEntity
  8
0
100
AcDbLine
 10
298.623177937452
 20
137.187619943606
 30
0.0
 11
315.5100976743142
 21
132.6619584751001
 31
0.0
  0
LINE
  5
7C
330
2
100
AcDbEntity
  8
0
100
AcDbLine
 10
336.9224106587808
 20
154.0742118549219
 30
0.0
 11
332.39806049246
 21
170.9615190219751
 31
0.0
  0
LINE
  5
7D
330
2
100
AcDbEntity
  8
0
  6
DASHED
100
AcDbLine
 10
321.7063879289071
 20
148.4465797138086
 30
0.0
 11
320.0346266545694
 21
149.5523650836817
 31
0.0
  0
LINE
  5
7E
330
2
100
AcDbEntity
  8
0
100
AcDbLine
 10
321.7063879289071
 20
148.4465797138086
 30
0.0
 11
335.9449540891092
 21
152.2596080493799
 31
0.0
  0
LINE
  5
7F
330
2
100
AcDbEntity
  8
0
100
AcDbLine
 10
336.9239901818673
 20
154.0748079013697
 30
0.0
 11
335.9439706124704
 21
152.2591312122217
 31
0.0
  0
LINE
  5
80
330
2
100
AcDbEntity
  8
0
100
AcDbLine
 39
1.477894722484052
 10
328.8258051194589
 20
150.3530938815943
 30
0.0
 11
328.4800385751168
 21
151.8123347949854
 31
0.0
  0
LINE
  5
81
330
2
100
AcDbEntity
  8
0
100
AcDbLine
 10
320.0351034917276
 20
149.5499808978907
 30
0.0
 11
336.9224106587808
 21
154.0742118549219
 31
0.0
  0
LINE
  5
82
330
2
100
AcDbEntity
  8
0
100
AcDbLine
 10
344.7598552026193
 20
183.3239991855494
 30
0.0
 11
332.3980306901376
 21
195.6867177677027
 31
0.0
  0
LINE
  5
83
330
2
100
AcDbEntity
  8
0
  6
DASHED
100
AcDbLine
 10
334.3962466039102
 20
170.8423097324244
 30
0.0
 11
332.3955570973794
 21
170.9642608356348
 31
0.0
  0
LINE
  5
84
330
2
100
AcDbEntity
  8
0
100
AcDbLine
 10
334.3962466039102
 20
170.8423097324244
 30
0.0
 11
344.820711544935
 21
181.2635858249537
 31
0.0
  0
LINE
  5
85
330
2
100
AcDbEntity
  8
0
100
AcDbLine
 10
344.7610174931924
 20
183.3251912784449
 30
0.0
 11
344.8201154984872
 21
181.2628705692164
 31
0.0
  0
LINE
  5
86
330
2
100
AcDbEntity
  8
0
100
AcDbLine
 39
1.477894722484052
 10
339.6086727895181
 20
176.0530669879786
 30
0.0
 11
338.5796283997934
 21
177.1437127780786
 31
0.0
  0
LINE
  5
87
330
2
100
AcDbEntity
  8
0
100
AcDbLine
 10
332.397136620466
 20
170.9622342777124
 30
0.0
 11
344.7598552026193
 21
183.3239991855494
 31
0.0
  0
LINE
  5
88
330
2
100
AcDbEntity
  8
0
100
AcDbLine
 10
336.9224404611032
 20
212.5736673068873
 30
0.0
 11
320.0354015149514
 21
217.0993287753931
 31
0.0
  0
LINE
  5
89
330
2
100
AcDbEntity
  8
0
  6
DASHED
100
AcDbLine
 10
334.1881369866769
 20
196.5824563693873
 30
0.0
 11
332.3945736207406
 21
195.68743302344
 31
0.0
  0
LINE
  5
8A
330
2
100
AcDbEntity
  8
0
100
AcDbLine
 10
334.1881369866769
 20
196.5824563693873
 30
0.0
 11
338.0052780427377
 21
210.8198602390162
 31
0.0
  0
LINE
  5
8B
330
2
100
AcDbEntity
  8
0
100
AcDbLine
 10
336.9228278912942
 20
212.575336236941
 30
0.0
 11
338.0052482404153
 21
210.8186681461207
 31
0.0
  0
LINE
  5
8C
330
2
100
AcDbEntity
  8
0
100
AcDbLine
 39
1.477894722484052
 10
336.096916130964
 20
203.7013967227808
 30
0.0
 11
334.6602951802652
 21
204.1315038394801
 31
0.0
  0
LINE
  5
8D
330
2
100
AcDbEntity
  8
0
100
AcDbLine
 10
332.3968982018869
 20
195.6867177677027
 30
0.0
 11
336.9224404611032
 21
212.5736673068873
 31
0.0
  0
LINE
  5
8E
330
2
100
AcDbEntity
  8
0
100
AcDbLine
 10
315.510157278959
 20
233.9860398959986
 30
0.0
 11
298.622790507261
 21
229.4618089389674
 31
0.0
  0
LINE
  5
8F
330
2
100
AcDbEntity
  8
0
  6
DASHED
100
AcDbLine
 10
321.1378192223947
 20
218.7701661777369
 30
0.0
 11
320.0320040501992
 21
217.0981366824976
 31
0.0
  0
LINE
  5
90
330
2
100
AcDbEntity
  8
0
100
AcDbLine
 10
321.1378192223947
 20
218.7701661777369
 30
0.0
 11
317.3248504914682
 21
233.0085237216822
 31
0.0
  0
LINE
  5
91
330
2
100
AcDbEntity
  8
0
100
AcDbLine
 10
315.5097102441232
 20
233.9874704074732
 30
0.0
 11
317.3253571309488
 21
233.0078084659449
 31
0.0
  0
LINE
  5
92
330
2
100
AcDbEntity
  8
0
100
AcDbLine
 39
1.477894722484052
 10
319.2314838685434
 20
225.8895833682887
 30
0.0
 11
317.7722727574746
 21
225.5436380100123
 31
0.0
  0
LINE
  5
93
330
2
100
AcDbEntity
  8
0
100
AcDbLine
 10
320.0343882359903
 20
217.0988519382349
 30
0.0
 11
315.510157278959
 21
233.9860398959986
 31
0.0
  0
LINE
  5
94
330
2
100
AcDbEntity
  8
0
100
AcDbLine
 10
286.2603699483316
 20
241.8235738468043
 30
0.0
 11
273.8976811685006
 21
229.4618089389674
 31
0.0
  0
LINE
  5
95
330
2
100
AcDbEntity
  8
0
  6
DASHED
100
AcDbLine
 10
298.7420892037789
 20
231.4599950504176
 30
0.0
 11
298.6203467168252
 21
229.4591863345972
 31
0.0
  0
LINE
  5
96
330
2
100
AcDbEntity
  8
0
100
AcDbLine
 10
298.7420892037789
 20
231.4599950504176
 30
0.0
 11
288.3207237042825
 21
241.8843705844752
 31
0.0
  0
LINE
  5
97
330
2
100
AcDbEntity
  8
0
100
AcDbLine
 10
286.2592672624032
 20
241.8245275211207
 30
0.0
 11
288.3215879716317
 21
241.883893747317
 31
0.0
  0
LINE
  5
98
330
2
100
AcDbEntity
  8
0
100
AcDbLine
 39
1.477894722484052
 10
293.5314511575143
 20
236.672540445315
 30
0.0
 11
292.4406861581246
 21
235.6432874393336
 31
0.0
  0
LINE
  5
99
330
2
100
AcDbEntity
  8
0
100
AcDbLine
 10
298.6221646584909
 20
229.460855264651
 30
0.0
 11
286.2603699483316
 21
241.8235738468043
 31
0.0
  0
LINE
  5
9A
330
2
100
AcDbEntity
  8
0
100
AcDbLine
 10
257.0106124200265
 20
233.9860398959986
 30
0.0
 11
252.4851148642938
 21
217.099090356814
 31
0.0
  0
LINE
  5
9B
330
2
100
AcDbEntity
  8
0
  6
DASHED
100
AcDbLine
 10
273.0018829621713
 20
231.2518556308619
 30
0.0
 11
273.8968467034738
 21
229.4582326602808
 31
0.0
  0
LINE
  5
9C
330
2
100
AcDbEntity
  8
0
100
AcDbLine
 10
273.0018829621713
 20
231.2518556308619
 30
0.0
 11
258.764523796026
 21
235.0689370822779
 31
0.0
  0
LINE
  5
9D
330
2
100
AcDbEntity
  8
0
100
AcDbLine
 10
257.0091223039071
 20
233.9862783145777
 30
0.0
 11
258.7655519761483
 21
235.0689370822779
 31
0.0
  0
LINE
  5
9E
330
2
100
AcDbEntity
  8
0
100
AcDbLine
 39
1.477894722484052
 10
265.8831363238733
 20
233.160634775149
 30
0.0
 11
265.4530739106576
 21
231.723924417483
 31
0.0
  0
LINE
  5
9F
330
2
100
AcDbEntity
  8
0
100
AcDbLine
 10
273.8976215638559
 20
229.4606168460719
 30
0.0
 11
257.0106124200265
 21
233.9860398959986
 31
0.0
  0
LINE
  5
A0
330
2
100
AcDbEntity
  8
0
100
AcDbLine
 10
235.5983143367212
 20
212.5736673068873
 30
0.0
 11
240.1226496018808
 21
195.6864793491236
 31
0.0
  0
LINE
  5
A1
330
2
100
AcDbEntity
  8
0
  6
DASHED
100
AcDbLine
 10
250.8142923631112
 20
218.2015378665797
 30
0.0
 11
252.4861877478997
 21
217.0955140781275
 31
0.0
  0
LINE
  5
A2
330
2
100
AcDbEntity
  8
0
100
AcDbLine
 10
250.8142923631112
 20
218.2015378665797
 30
0.0
 11
236.5758603133599
 21
214.3885095310084
 31
0.0
  0
LINE
  5
A3
330
2
100
AcDbEntity
  8
0
100
AcDbLine
 10
235.5968540229242
 20
212.5734288883082
 30
0.0
 11
236.5767394818704
 21
214.3889863681666
 31
0.0
  0
LINE
  5
A4
330
2
100
AcDbEntity
  8
0
100
AcDbLine
 39
1.477894722484052
 10
243.6949049748819
 20
216.2951429080836
 30
0.0
 11
244.0408205308358
 21
214.836021203982
 31
0.0
  0
LINE
  5
A5
330
2
100
AcDbEntity
  8
0
100
AcDbLine
 10
252.4856513060968
 20
217.0981366824976
 30
0.0
 11
235.5983143367212
 21
212.5736673068873
 31
0.0
  0
LINE
  5
A6
330
2
100
AcDbEntity
  8
0
100
AcDbLine
 10
227.7608548917215
 20
183.3239991855494
 30
0.0
 11
240.1227390088479
 21
170.961280603396
 31
0.0
  0
LINE
  5
A7
330
2
100
AcDbEntity
  8
0
  6
DASHED
100
AcDbLine
 10
238.1244634904306
 20
195.8056886386744
 30
0.0
 11
240.1253169097345
 21
195.6840951633326
 31
0.0
  0
LINE
  5
A8
330
2
100
AcDbEntity
  8
0
100
AcDbLine
 10
238.1244634904306
 20
195.8056886386744
 30
0.0
 11
227.7001028575341
 21
185.384174127566
 31
0.0
  0
LINE
  5
A9
330
2
100
AcDbEntity
  8
0
100
AcDbLine
 10
227.7598863162439
 20
183.3228070926539
 30
0.0
 11
227.7006392993371
 21
185.3851278018824
 31
0.0
  0
LINE
  5
AA
330
2
100
AcDbEntity
  8
0
100
AcDbLine
 39
1.477894722484052
 10
232.9120373048227
 20
190.5952890109888
 30
0.0
 11
233.9412903108041
 21
189.5042855930201
 31
0.0
  0
LINE
  5
AB
330
2
100
AcDbEntity
  8
0
100
AcDbLine
 10
240.1236181773584
 20
195.6857640933863
 30
0.0
 11
227.7608548917215
 21
183.3239991855494
 31
0.0
  0
LINE
  5
AC
330
2
100
AcDbEntity
  8
0
100
AcDbLine
 10
235.5983143367212
 20
154.0742118549219
 30
0.0
 11
252.4854128875177
 21
149.5489080142847
 31
0.0
  0
LINE
  5
AD
330
2
100
AcDbEntity
  8
0
  6
DASHED
100
AcDbLine
 10
238.3326327123086
 20
170.0654227924219
 30
0.0
 11
240.1262854852121
 21
170.9603269290796
 31
0.0
  0
LINE
  5
AE
330
2
100
AcDbEntity
  8
0
100
AcDbLine
 10
238.3326327123086
 20
170.0654227924219
 30
0.0
 11
234.5155214585702
 21
155.8283765506617
 31
0.0
  0
LINE
  5
AF
330
2
100
AcDbEntity
  8
0
100
AcDbLine
 10
235.5980610169809
 20
154.0727813434473
 30
0.0
 11
234.515581063215
 21
155.829091806399
 31
0.0
  0
LINE
  5
B0
330
2
100
AcDbEntity
  8
0
100
AcDbLine
 39
1.477894722484052
 10
236.4238386668603
 20
162.946840066897
 30
0.0
 11
237.8606235303323
 21
162.5167329501978
 31
0.0
  0
LINE
  5
B1
330
2
100
AcDbEntity
  8
0
100
AcDbLine
 10
240.123901299421
 20
170.9611613941065
 30
0.0
 11
235.5983143367212
 21
154.0742118549219
 31
0.0
  0
LINE
  5
B2
330
2
100
AcDbEntity
  8
0
100
AcDbLine
 10
257.0106124200265
 20
132.6619584751001
 30
0.0
 11
273.8980685986917
 21
137.1864278507105
 31
0.0
  0
LINE
  5
B3
330
2
100
AcDbEntity
  8
0
  6
DASHED
100
AcDbLine
 10
251.3830100812356
 20
147.878070611941
 30
0.0
 11
252.488899759237
 21
149.5498616886011
 31
0.0
  0
LINE
  5
B4
330
2
100
AcDbEntity
  8
0
100
AcDbLine
 10
251.3830100812356
 20
147.878070611941
 30
0.0
 11
255.1959490098397
 21
133.6395938587061
 31
0.0
  0
LINE
  5
B5
330
2
100
AcDbEntity
  8
0
100
AcDbLine
 10
257.0111488618295
 20
132.6605279636255
 30
0.0
 11
255.1955168761651
 21
133.6405475330225
 31
0.0
  0
LINE
  5
B6
330
2
100
AcDbEntity
  8
0
100
AcDbLine
 39
1.477894722484052
 10
253.2893305339257
 20
140.7585342120996
 30
0.0
 11
254.7486012496392
 21
141.104479570376
 31
0.0
  0
LINE
  5
B7
330
2
100
AcDbEntity
  8
0
100
AcDbLine
 10
252.4864261664788
 20
149.5492656421534
 30
0.0
 11
257.0106124200265
 21
132.6619584751001
 31
0.0
  0
INSERT
  5
B8
330
2
100
AcDbEntity
  8
0
100
AcDbBlockReference
  2
SST_STEMPEL
 10
297.9296046411944
 20
203.6623327694019
 30
0.0
  0
ENDSEC
  0
SECTION
  2
OBJECTS
  0
DICTIONARY
  5
7
330
0
100
AcDbDictionary
281
     1
  3
ACAD_COLOR
350
25
  3
ACAD_GROUP
350
21
  3
ACAD_LAYOUT
350
B
  3
ACAD_MATERIAL
350
24
  3
ACAD_MLINESTYLE
350
22
  3
ACAD_PLOTSETTINGS
350
23
  3
ACAD_PLOTSTYLENAME
350
6
  3
ACAD_TABLESTYLE
350
26
  3
ACDBHEADERROUNDTRIPXREC
350
D7
  3
AcDbVariableDictionary
350
C2
  0
DICTIONARY
  5
11
330
10
100
AcDbDictionary
280
     1
281
     1
  3
ACAD_LAYERSTATES
360
12
  0
DICTIONARY
  5
BA
330
B9
100
AcDbDictionary
280
     1
281
     1
  3
ACAD_SORTENTS
360
BB
  0
DICTIONARY
  5
25
102
{ACAD_REACTORS
330
7
102
}
330
7
100
AcDbDictionary
281
     1
  0
DICTIONARY
  5
21
102
{ACAD_REACTORS
330
7
102
}
330
7
100
AcDbDictionary
281
     1
  0
DICTIONARY
  5
B
102
{ACAD_REACTORS
330
7
102
}
330
7
100
AcDbDictionary
281
     1
  3
Layout1
350
F
  3
Model
350
A
  0
DICTIONARY
  5
24
102
{ACAD_REACTORS
330
7
102
}
330
7
100
AcDbDictionary
281
     1
  0
DICTIONARY
  5
22
102
{ACAD_REACTORS
330
7
102
}
330
7
100
AcDbDictionary
281
     1
  3
Standard
350
27
  0
DICTIONARY
  5
23
102
{ACAD_REACTORS
330
7
102
}
330
7
100
AcDbDictionary
281
     1
  0
ACDBDICTIONARYWDFLT
  5
6
102
{ACAD_REACTORS
330
7
102
}
330
7
100
AcDbDictionary
281
     1
  3
Normal
350
5
100
AcDbDictionaryWithDefault
340
5
  0
DICTIONARY
  5
26
102
{ACAD_REACTORS
330
7
102
}
330
7
100
AcDbDictionary
281
     1
  3
Standard
350
28
  0
DICTIONARY
  5
D7
102
{ACAD_REACTORS
330
7
102
}
330
7
100
AcDbDictionary
281
     1
  0
DICTIONARY
  5
C2
102
{ACAD_REACTORS
330
7
102
}
330
7
100
AcDbDictionary
281
     1
  3
CTABLESTYLE
350
C3
  3
DIMASSOC
350
D4
  3
HIDETEXT
350
D3
  3
PROJECTNAME
350
D5
  0
DICTIONARY
  5
12
102
{ACAD_REACTORS
330
11
102
}
330
11
100
AcDbDictionary
281
     1
  0
SORTENTSTABLE
  5
BB
102
{ACAD_REACTORS
330
BA
102
}
330
BA
100
AcDbSortentsTable
330
B9
  0
LAYOUT
  5
F
102
{ACAD_XDICTIONARY
360
DA
102
}
102
{ACAD_REACTORS
330
B
102
}
330
B
100
AcDbPlotSettings
  1

  2
\\46nt\Lexmark Optra S 1855 plus
  4

  6

 40
0.0
 41
0.0
 42
0.0
 43
0.0
 44
0.0
 45
0.0
 46
0.0
 47
0.0
 48
0.0
 49
0.0
140
0.0
141
0.0
142
1.0
143
1.0
 70
   688
 72
     0
 73
     0
 74
     5
  7

 75
    16
147
1.0
148
0.0
149
0.0
100
AcDbLayout
  1
Layout1
 70
     1
 71
     1
 10
0.0
 20
0.0
 11
420.0
 21
297.0
 12
0.0
 22
0.0
 32
0.0
 14
1.000000000000000E+20
 24
1.000000000000000E+20
 34
1.000000000000000E+20
 15
-1.000000000000000E+20
 25
-1.000000000000000E+20
 35
-1.000000000000000E+20
146
0.0
 13
0.0
 23
0.0
 33
0.0
 16
1.0
 26
0.0
 36
0.0
 17
0.0
 27
1.0
 37
0.0
 76
     0
330
C
  0
LAYOUT
  5
A
102
{ACAD_XDICTIONARY
360
D8
102
}
102
{ACAD_REACTORS
330
B
102
}
330
B
100
AcDbPlotSettings
  1

  2
\\46nt\Lexmark Optra S 1855 plus
  4

  6

 40
0.0
 41
0.0
 42
0.0
 43
0.0
 44
0.0
 45
0.0
 46
0.0
 47
0.0
 48
0.0
 49
0.0
140
0.0
141
0.0
142
1.0
143
1.0
 70
  1712
 72
     0
 73
     0
 74
     0
  7

 75
     0
147
1.0
148
0.0
149
0.0
100
AcDbLayout
  1
Model
 70
     1
 71
     0
 10
0.0
 20
0.0
 11
12.0
 21
9.0
 12
0.0
 22
0.0
 32
0.0
 14
0.0
 24
0.0
 34
0.0
 15
0.0
 25
0.0
 35
0.0
146
0.0
 13
0.0
 23
0.0
 33
0.0
 16
1.0
 26
0.0
 36
0.0
 17
0.0
 27
1.0
 37
0.0
 76
     0
330
2
  0
MLINESTYLE
  5
27
102
{ACAD_REACTORS
330
22
102
}
330
22
100
AcDbMlineStyle
  2
STANDARD
 70
     0
  3

 62
   256
 51
90.0
 52
90.0
 71
     2
 49
0.5
 62
   256
  6
BYLAYER
 49
-0.5
 62
   256
  6
BYLAYER
  0
ACDBPLACEHOLDER
  5
5
102
{ACAD_REACTORS
330
6
102
}
330
6
  0
TABLESTYLE
  5
28
102
{ACAD_REACTORS
330
26
102
}
330
26
100
AcDbTableStyle
  3
Standard
 70
     0
 71
     0
 40
1.5
 41
1.5
280
     0
281
     0
  7
Standard
140
4.5
170
     2
 62
     0
 63
     7
283
     0
274
    -2
284
     1
 64
     0
275
    -2
285
     1
 65
     0
276
    -2
286
     1
 66
     0
277
    -2
287
     1
 67
     0
278
    -2
288
     1
 68
     0
279
    -2
289
     1
 69
     0
  7
Standard
140
6.0
170
     5
 62
     0
 63
     7
283
     0
274
    -2
284
     1
 64
     0
275
    -2
285
     1
 65
     0
276
    -2
286
     1
 66
     0
277
    -2
287
     1
 67
     0
278
    -2
288
     1
 68
     0
279
    -2
289
     1
 69
     0
  7
Standard
140
4.5
170
     5
 62
     0
 63
     7
283
     0
274
    -2
284
     1
 64
     0
275
    -2
285
     1
 65
     0
276
    -2
286
     1
 66
     0
277
    -2
287
     1
 67
     0
278
    -2
288
     1
 68
     0
279
    -2
289
     1
 69
     0
  0
DICTIONARYVAR
  5
C3
102
{ACAD_REACTORS
330
C2
102
}
330
C2
100
DictionaryVariables
280
     0
  1
STANDARD
  0
DICTIONARYVAR
  5
D4
102
{ACAD_REACTORS
330
C2
102
}
330
C2
100
DictionaryVariables
280
     0
  1
2
  0
DICTIONARYVAR
  5
D3
102
{ACAD_REACTORS
330
C2
102
}
330
C2
100
DictionaryVariables
280
     0
  1
1
  0
DICTIONARYVAR
  5
D5
102
{ACAD_REACTORS
330
C2
102
}
330
C2
100
DictionaryVariables
280
     0
  1

  0
DICTIONARY
  5
DA
330
F
100
AcDbDictionary
280
     1
281
     1
  3
ACAD_XREC_ROUNDTRIP
360
DB
  0
DICTIONARY
  5
D8
330
A
100
AcDbDictionary
280
     1
281
     1
  3
ACAD_XREC_ROUNDTRIP
360
D9
  0
XRECORD
  5
DB
102
{ACAD_REACTORS
330
DA
102
}
330
DA
100
AcDbXrecord
280
     1
102
SHADEPLOT
 70
     0
102
SHADEPLOTRESLEVEL
 70
     2
102
SHADEPLOTCUSTOMDPI
 70
   300
  0
XRECORD
  5
D9
102
{ACAD_REACTORS
330
D8
102
}
330
D8
100
AcDbXrecord
280
     1
102
SHADEPLOT
 70
     0
102
SHADEPLOTRESLEVEL
 70
     2
102
SHADEPLOTCUSTOMDPI
 70
   300
  0
ENDSEC
  0
EOF
