  0
SECTION
  2
HEADER
  9
$ACADVER
  1
AC1009
  9
$INSBASE
 10
245.12134119029261
 20
228.0083684577022
 30
0.0
  9
$EXTMIN
 10
207.4685681139452
 20
190.3743905615695
 30
-0.0015258207003583
  9
$EXTMAX
 10
282.77069173610153
 20
265.6485907428999
 30
1.200866735541346
  9
$LIMMIN
 10
0.0
 20
0.0
  9
$LIMMAX
 10
420.0
 20
297.0
  9
$ORTHOMODE
 70
     0
  9
$REGENMODE
 70
     1
  9
$FILLMODE
 70
     1
  9
$QTEXTMODE
 70
     0
  9
$MIRRTEXT
 70
     0
  9
$DRAGMODE
 70
     2
  9
$LTSCALE
 40
1.0
  9
$OSMODE
 70
   183
  9
$ATTMODE
 70
     1
  9
$TEXTSIZE
 40
2.5
  9
$TRACEWID
 40
1.0
  9
$TEXTSTYLE
  7
STANDARD
  9
$CLAYER
  8
0
  9
$CELTYPE
  6
BYLAYER
  9
$CECOLOR
 62
   256
  9
$DIMSCALE
 40
1.0
  9
$DIMASZ
 40
2.5
  9
$DIMEXO
 40
0.625
  9
$DIMDLI
 40
3.75
  9
$DIMRND
 40
0.0
  9
$DIMDLE
 40
0.0
  9
$DIMEXE
 40
1.25
  9
$DIMTP
 40
0.0
  9
$DIMTM
 40
0.0
  9
$DIMTXT
 40
2.5
  9
$DIMCEN
 40
2.5
  9
$DIMTSZ
 40
0.0
  9
$DIMTOL
 70
     0
  9
$DIMLIM
 70
     0
  9
$DIMTIH
 70
     0
  9
$DIMTOH
 70
     0
  9
$DIMSE1
 70
     0
  9
$DIMSE2
 70
     0
  9
$DIMTAD
 70
     1
  9
$DIMZIN
 70
     8
  9
$DIMBLK
  1

  9
$DIMASO
 70
     1
  9
$DIMSHO
 70
     1
  9
$DIMPOST
  1

  9
$DIMAPOST
  1

  9
$DIMALT
 70
     0
  9
$DIMALTD
 70
     3
  9
$DIMALTF
 40
0.03937007874016
  9
$DIMLFAC
 40
1.0
  9
$DIMTOFL
 70
     1
  9
$DIMTVP
 40
0.0
  9
$DIMTIX
 70
     0
  9
$DIMSOXD
 70
     0
  9
$DIMSAH
 70
     0
  9
$DIMBLK1
  1

  9
$DIMBLK2
  1

  9
$DIMSTYLE
  2
ISO-25
  9
$DIMCLRD
 70
     0
  9
$DIMCLRE
 70
     0
  9
$DIMCLRT
 70
     0
  9
$DIMTFAC
 40
1.0
  9
$DIMGAP
 40
0.625
  9
$LUNITS
 70
     2
  9
$LUPREC
 70
     4
  9
$SKETCHINC
 40
1.0
  9
$FILLETRAD
 40
0.0
  9
$AUNITS
 70
     0
  9
$AUPREC
 70
     0
  9
$MENU
  1
.
  9
$ELEVATION
 40
0.0
  9
$PELEVATION
 40
0.0
  9
$THICKNESS
 40
0.0
  9
$LIMCHECK
 70
     0
  9
$BLIPMODE
 70
     0
  9
$CHAMFERA
 40
0.0
  9
$CHAMFERB
 40
0.0
  9
$SKPOLY
 70
     0
  9
$TDCREATE
 40
2453809.3862774889
  9
$TDUPDATE
 40
2453809.4869446298
  9
$TDINDWG
 40
0.0891717361
  9
$TDUSRTIMER
 40
0.0891717361
  9
$USRTIMER
 70
     1
  9
$ANGBASE
 50
0.0
  9
$ANGDIR
 70
     0
  9
$PDMODE
 70
     0
  9
$PDSIZE
 40
0.0
  9
$PLINEWID
 40
0.0
  9
$COORDS
 70
     0
  9
$SPLFRAME
 70
     0
  9
$SPLINETYPE
 70
     6
  9
$SPLINESEGS
 70
     8
  9
$ATTDIA
 70
     1
  9
$ATTREQ
 70
     1
  9
$HANDLING
 70
     1
  9
$HANDSEED
  5
96
  9
$SURFTAB1
 70
     6
  9
$SURFTAB2
 70
     6
  9
$SURFTYPE
 70
     6
  9
$SURFU
 70
     6
  9
$SURFV
 70
     6
  9
$UCSNAME
  2

  9
$UCSORG
 10
0.0
 20
0.0
 30
0.0
  9
$UCSXDIR
 10
1.0
 20
0.0
 30
0.0
  9
$UCSYDIR
 10
0.0
 20
1.0
 30
0.0
  9
$PUCSNAME
  2

  9
$PUCSORG
 10
0.0
 20
0.0
 30
0.0
  9
$PUCSXDIR
 10
1.0
 20
0.0
 30
0.0
  9
$PUCSYDIR
 10
0.0
 20
1.0
 30
0.0
  9
$USERI1
 70
     0
  9
$USERI2
 70
     0
  9
$USERI3
 70
     0
  9
$USERI4
 70
     0
  9
$USERI5
 70
     0
  9
$USERR1
 40
0.0
  9
$USERR2
 40
0.0
  9
$USERR3
 40
0.0
  9
$USERR4
 40
0.0
  9
$USERR5
 40
0.0
  9
$WORLDVIEW
 70
     1
  9
$SHADEDGE
 70
     3
  9
$SHADEDIF
 70
    70
  9
$TILEMODE
 70
     1
  9
$MAXACTVP
 70
    64
  9
$PLIMCHECK
 70
     0
  9
$PEXTMIN
 10
1.0000000000000000E+020
 20
1.0000000000000000E+020
 30
1.0000000000000000E+020
  9
$PEXTMAX
 10
-1.0000000000000000E+020
 20
-1.0000000000000000E+020
 30
-1.0000000000000000E+020
  9
$PLIMMIN
 10
0.0
 20
0.0
  9
$PLIMMAX
 10
420.0
 20
297.0
  9
$UNITMODE
 70
     0
  9
$VISRETAIN
 70
     1
  9
$PLINEGEN
 70
     0
  9
$PSLTSCALE
 70
     1
  0
ENDSEC
  0
SECTION
  2
TABLES
  0
TABLE
  2
VPORT
 70
     2
  0
VPORT
  2
*ACTIVE
 70
     0
 10
0.0
 20
0.0
 11
1.0
 21
1.0
 12
245.1196299250233
 22
228.0114906522347
 13
0.0
 23
0.0
 14
10.0
 24
10.0
 15
10.0
 25
10.0
 16
0.0
 26
0.0
 36
1.0
 17
0.0
 27
0.0
 37
0.0
 40
76.199702642576199
 41
1.985626283367556
 42
50.0
 43
0.0
 44
0.0
 50
0.0
 51
0.0
 71
     0
 72
  1000
 73
     1
 74
     3
 75
     0
 76
     0
 77
     0
 78
     0
  0
ENDTAB
  0
TABLE
  2
LTYPE
 70
     2
  0
LTYPE
  2
CONTINUOUS
 70
     0
  3
Solid line
 72
    65
 73
     0
 40
0.0
  0
LTYPE
  2
DASHED
 70
     0
  3
__ __ __ __ __ __ __ __ __ __ __ __ __ __ __ __
 72
    65
 73
     2
 40
0.75
 49
0.5
 49
-0.25
  0
ENDTAB
  0
TABLE
  2
LAYER
 70
     1
  0
LAYER
  2
0
 70
     0
 62
     7
  6
CONTINUOUS
  0
ENDTAB
  0
TABLE
  2
STYLE
 70
     2
  0
STYLE
  2
STANDARD
 70
     0
 40
0.0
 41
1.0
 50
0.0
 71
     0
 42
2.5
  3
txt
  4

  0
STYLE
  2
SST
 70
     0
 40
0.0
 41
1.0
 50
0.0
 71
     0
 42
3.5
  3
romans.shx
  4

  0
ENDTAB
  0
TABLE
  2
VIEW
 70
     1
  0
ENDTAB
  0
TABLE
  2
UCS
 70
     0
  0
ENDTAB
  0
TABLE
  2
APPID
 70
     1
  0
APPID
  2
ACAD
 70
     0
  0
ENDTAB
  0
TABLE
  2
DIMSTYLE
 70
     1
  0
DIMSTYLE
  2
ISO-25
 70
     0
  3

  4

  5

  6

  7

 40
1.0
 41
2.5
 42
0.625
 43
3.75
 44
1.25
 45
0.0
 46
0.0
 47
0.0
 48
0.0
140
2.5
141
2.5
142
0.0
143
0.03937007874016
144
1.0
145
0.0
146
1.0
147
0.625
 71
     0
 72
     0
 73
     0
 74
     0
 75
     0
 76
     0
 77
     1
 78
     8
170
     0
171
     3
172
     1
173
     0
174
     0
175
     0
176
     0
177
     0
178
     0
  0
ENDTAB
  0
ENDSEC
  0
SECTION
  2
BLOCKS
  0
BLOCK
  8
0
  2
$MODEL_SPACE
 70
     0
 10
0.0
 20
0.0
 30
0.0
  3
$MODEL_SPACE
  1

  0
ENDBLK
  5
9
  8
0
  0
BLOCK
 67
     1
  8
0
  2
$PAPER_SPACE
 70
     0
 10
0.0
 20
0.0
 30
0.0
  3
$PAPER_SPACE
  1

  0
ENDBLK
  5
E
 67
     1
  8
0
  0
BLOCK
  8
0
  2
SST_STEMPEL
 70
     0
 10
0.0
 20
0.0
 30
0.0
  3
SST_STEMPEL
  1

  0
TEXT
  5
7D
  8
0
  6
CONTINUOUS
 10
-3.7411495635157048
 20
3.9928114471995282
 30
0.0
 40
2.0
  1
SIMPSON
 50
316.94148639091338
  7
SST
  0
TEXT
  5
7F
  8
0
  6
CONTINUOUS
 10
-6.6562228572371387
 20
3.112015578657064
 30
0.0
 40
2.0
  1
Strong-Tie
 50
316.94148639091338
  7
SST
  0
ENDBLK
  5
80
  8
0
  0
ENDSEC
  0
SECTION
  2
ENTITIES
  0
POINT
  5
2A
  8
0
 10
245.12134119029261
 20
228.0083684577022
 30
0.0
  0
LINE
  5
2B
  8
0
 10
245.12134119029261
 20
190.50870224371289
 30
0.0
 11
253.046106538727
 21
198.43302055731149
 31
0.0
  0
LINE
  5
2C
  8
0
 10
237.19723149295061
 20
198.4334973944697
 30
0.0
 11
245.12134119029261
 21
190.50870224371289
 31
0.0
  0
LINE
  5
2D
  8
0
  6
DASHED
 10
237.02038451190211
 20
196.842530216125
 30
0.0
 11
237.19824477191179
 21
198.4344510687861
 31
0.0
  0
LINE
  5
2F
  8
0
 10
245.12211605067461
 20
190.50798698797561
 30
0.0
 11
243.48495527262901
 21
190.37745281591751
 31
0.0
  0
LINE
  5
30
  8
0
 39
0.9473684476688504
 10
240.25265499110429
 20
193.60993191137649
 30
0.0
 11
241.1596886729738
 21
194.470384563354
 31
0.0
  0
LINE
  5
31
  8
0
 10
237.02038451190211
 20
196.842530216125
 30
0.0
 11
243.48495527262901
 21
190.37745281591751
 31
0.0
  0
LINE
  5
32
  8
0
 10
263.87117429728721
 20
195.53265854254099
 30
0.0
 11
266.7720727538607
 21
206.35769649877881
 31
0.0
  0
LINE
  5
33
  8
0
 10
253.04625555033891
 20
198.4337358130488
 30
0.0
 11
263.87117429728721
 21
195.53265854254099
 31
0.0
  0
LINE
  5
34
  8
0
  6
DASHED
 10
253.68864460940571
 20
196.9673423422847
 30
0.0
 11
253.04664298053001
 21
198.43504711523391
 31
0.0
  0
LINE
  5
35
  8
0
 10
263.87218757624839
 20
195.53253933325149
 30
0.0
 11
262.51969858165
 21
194.6007995261225
 31
0.0
  0
LINE
  5
36
  8
0
 39
0.9473684476688504
 10
258.10412689204429
 20
195.78419014349319
 30
0.0
 11
258.45940037722801
 21
196.9828395499263
 31
0.0
  0
LINE
  5
37
  8
0
 10
253.68864460940571
 20
196.9673423422847
 30
0.0
 11
262.51969858165
 21
194.6007995261225
 31
0.0
  0
LINE
  5
38
  8
0
 10
277.596991500809
 20
209.25853535070749
 30
0.0
 11
274.6967188930056
 21
220.08369251623489
 31
0.0
  0
LINE
  5
39
  8
0
 10
266.7718343352816
 20
206.35853096380569
 30
0.0
 11
277.596991500809
 21
209.25853535070749
 31
0.0
  0
LINE
  5
3A
  8
0
  6
DASHED
 10
268.0613212203524
 20
205.4098634375606
 30
0.0
 11
266.771476707413
 21
206.3597230567012
 31
0.0
  0
LINE
  5
3B
  8
0
 10
277.59800477977012
 20
209.2588929785762
 30
0.0
 11
276.8925242042086
 21
207.7758102072749
 31
0.0
  0
LINE
  5
3C
  8
0
 39
0.9473684476688504
 10
272.47689290995811
 20
206.592777217773
 30
0.0
 11
272.18521758074979
 21
207.80835434332229
 31
0.0
  0
LINE
  5
3D
  8
0
 10
268.0613212203524
 20
205.4098634375606
 30
0.0
 11
276.8925242042086
 21
207.7758102072749
 31
0.0
  0
LINE
  5
3E
  8
0
 10
282.6210074042819
 20
228.0083684577022
 30
0.0
 11
274.69668909068321
 21
235.93316360845901
 31
0.0
  0
LINE
  5
3F
  8
0
 10
274.69615264888017
 20
220.08416935339309
 30
0.0
 11
282.6210074042819
 21
228.0083684577022
 31
0.0
  0
LINE
  5
40
  8
0
  6
DASHED
 10
276.28723903651451
 20
219.90738197698931
 30
0.0
 11
274.69516917224149
 21
220.0851230277095
 31
0.0
  0
LINE
  5
41
  8
0
 10
282.62169285769681
 20
228.009202922729
 30
0.0
 11
282.7522866343997
 21
226.3719825400386
 31
0.0
  0
LINE
  5
42
  8
0
 39
0.9473684476688504
 10
279.51974793429588
 20
223.13962265386911
 30
0.0
 11
278.65926547999601
 21
224.04668613806101
 31
0.0
  0
LINE
  5
43
  8
0
 10
276.28723903651451
 20
219.90738197698931
 30
0.0
 11
282.7522866343997
 21
226.3719825400386
 31
0.0
  0
LINE
  5
44
  8
0
 10
277.596991500809
 20
246.7582015646968
 30
0.0
 11
266.77198334689359
 21
249.65904041662549
 31
0.0
  0
LINE
  5
45
  8
0
 10
274.69594403262352
 20
235.93328281774851
 30
0.0
 11
277.596991500809
 21
246.7582015646968
 31
0.0
  0
LINE
  5
46
  8
0
  6
DASHED
 10
276.1622778987429
 20
236.5755824698482
 30
0.0
 11
274.69460292811613
 21
235.93364044561719
 31
0.0
  0
LINE
  5
47
  8
0
 10
277.59717031474332
 20
246.7592744483027
 30
0.0
 11
278.5288505172274
 21
245.4067258490596
 31
0.0
  0
LINE
  5
48
  8
0
 39
0.9473684476688504
 10
277.34554930682401
 20
240.9912137640986
 30
0.0
 11
276.14687009806852
 21
241.34633823767041
 31
0.0
  0
LINE
  5
49
  8
0
 10
276.1622778987429
 20
236.5755824698482
 30
0.0
 11
278.5288505172274
 21
245.4067258490596
 31
0.0
  0
LINE
  5
4A
  8
0
 10
263.87117429728721
 20
260.48395916357367
 30
0.0
 11
253.04595752711509
 21
257.58371635809277
 31
0.0
  0
LINE
  5
4B
  8
0
 10
266.7712382888339
 20
249.65880199804641
 30
0.0
 11
263.87117429728721
 21
260.48395916357367
 31
0.0
  0
LINE
  5
4C
  8
0
  6
DASHED
 10
267.7199356174014
 20
250.94828888311719
 30
0.0
 11
266.7698971843264
 21
249.6584443701777
 31
0.0
  0
LINE
  5
4D
  8
0
 10
263.87078686709617
 20
260.48503204717969
 30
0.0
 11
265.35392924304222
 21
259.77955147161822
 31
0.0
  0
LINE
  5
4E
  8
0
 39
0.9473684476688504
 10
266.53690262789939
 20
255.3638009680781
 30
0.0
 11
265.32123609538291
 21
255.07221504583691
 31
0.0
  0
LINE
  5
4F
  8
0
 10
267.7199356174014
 20
250.94828888311719
 30
0.0
 11
265.35392924304222
 21
259.77955147161822
 31
0.0
  0
LINE
  5
50
  8
0
 10
245.12134119029261
 20
265.50803467169141
 30
0.0
 11
237.19660564418049
 21
257.58371635809277
 31
0.0
  0
LINE
  5
51
  8
0
 10
253.04548068995689
 20
257.58312031164502
 30
0.0
 11
245.12134119029261
 21
265.50803467169141
 31
0.0
  0
LINE
  5
52
  8
0
  6
DASHED
 10
253.22229786868311
 20
259.1742066992793
 30
0.0
 11
253.04446741099571
 21
257.58216663732861
 31
0.0
  0
LINE
  5
53
  8
0
 10
245.12053652758809
 20
265.50863071813922
 30
0.0
 11
246.75769730563371
 21
265.63928409948682
 31
0.0
  0
LINE
  5
54
  8
0
 39
0.9473684476688504
 10
249.9899975871584
 20
262.40668579473828
 30
0.0
 11
249.0830235099337
 21
261.54623314276068
 31
0.0
  0
LINE
  5
55
  8
0
 10
253.22229786868311
 20
259.1742066992793
 30
0.0
 11
246.75769730563371
 21
265.63928409948682
 31
0.0
  0
LINE
  5
56
  8
0
 10
226.37152298445909
 20
260.48395916357367
 30
0.0
 11
223.4706394290468
 21
249.65892120733591
 31
0.0
  0
LINE
  5
57
  8
0
 10
237.19645663256861
 20
257.58300110235552
 30
0.0
 11
226.37152298445909
 21
260.48395916357367
 31
0.0
  0
LINE
  5
58
  8
0
  6
DASHED
 10
236.5540377711794
 20
259.04927536383008
 30
0.0
 11
237.19606920237749
 21
257.58157059088092
 31
0.0
  0
LINE
  5
59
  8
0
 10
226.37046500201441
 20
260.48419758215277
 30
0.0
 11
227.7229987000963
 21
261.41593738928168
 31
0.0
  0
LINE
  5
5A
  8
0
 39
0.9473684476688504
 10
232.13855548854079
 20
260.23254677191107
 30
0.0
 11
231.78331180567949
 21
259.03389736547803
 31
0.0
  0
LINE
  5
5B
  8
0
 10
236.5540377711794
 20
259.04927536383008
 30
0.0
 11
227.7229987000963
 21
261.41593738928168
 31
0.0
  0
LINE
  5
5C
  8
0
 10
212.64572068209861
 20
246.7582015646968
 30
0.0
 11
215.54597838874071
 21
235.93292518987991
 31
0.0
  0
LINE
  5
5D
  8
0
 10
223.4708778476259
 20
249.65832516088821
 30
0.0
 11
212.64572068209861
 21
246.7582015646968
 31
0.0
  0
LINE
  5
5E
  8
0
  6
DASHED
 10
222.18137606139391
 20
250.6069926871333
 30
0.0
 11
223.47122057433339
 21
249.65677544012399
 31
0.0
  0
LINE
  5
5F
  8
0
 10
212.6447074031374
 20
246.7577247275386
 30
0.0
 11
213.3501879786989
 21
248.24092670812939
 31
0.0
  0
LINE
  5
60
  8
0
 39
0.9473684476688504
 10
217.7658490752718
 20
249.4238404883418
 30
0.0
 11
218.05749460215779
 21
248.2081441535029
 31
0.0
  0
LINE
  5
61
  8
0
 10
222.18137606139391
 20
250.6069926871333
 30
0.0
 11
213.3501879786989
 21
248.24092670812939
 31
0.0
  0
LINE
  5
62
  8
0
 10
207.62170477862571
 20
228.0083684577022
 30
0.0
 11
215.54602309222429
 21
220.08357330694531
 31
0.0
  0
LINE
  5
63
  8
0
 10
215.5465595340273
 20
235.93244835272171
 30
0.0
 11
207.62170477862571
 21
228.0083684577022
 31
0.0
  0
LINE
  5
64
  8
0
  6
DASHED
 10
213.95547314639299
 20
236.10923572912549
 30
0.0
 11
215.5475281095049
 21
235.93137546911569
 31
0.0
  0
LINE
  5
65
  8
0
 10
207.6210193252108
 20
228.00753399267529
 30
0.0
 11
207.49041064734669
 21
229.6446351660762
 31
0.0
  0
LINE
  5
66
  8
0
 39
0.9473684476688504
 10
210.72302385325639
 20
232.8769950522456
 30
0.0
 11
211.58343180175041
 21
231.97005077734329
 31
0.0
  0
LINE
  5
67
  8
0
 10
213.95547314639299
 20
236.10923572912549
 30
0.0
 11
207.49041064734669
 21
229.6446351660762
 31
0.0
  0
LINE
  5
68
  8
0
 10
212.64572068209861
 20
209.25853535070749
 30
0.0
 11
223.47074373717521
 21
206.35757728948931
 31
0.0
  0
LINE
  5
69
  8
0
 10
215.54675324912279
 20
220.08345409765579
 30
0.0
 11
212.64572068209861
 21
209.25853535070749
 31
0.0
  0
LINE
  5
6A
  8
0
  6
DASHED
 10
214.0804193830034
 20
219.4410352362666
 30
0.0
 11
215.54810925479151
 21
220.08309646978711
 31
0.0
  0
LINE
  5
6B
  8
0
 10
212.64552696700309
 20
209.25746246710159
 30
0.0
 11
211.71384676451891
 21
210.6100110663447
 31
0.0
  0
LINE
  5
6C
  8
0
 39
0.9473684476688504
 10
212.89720757956721
 20
215.02564236059521
 30
0.0
 11
214.0958271836779
 21
214.67027946844431
 31
0.0
  0
LINE
  5
6D
  8
0
 10
214.0804193830034
 20
219.4410352362666
 30
0.0
 11
211.71384676451891
 21
210.6100110663447
 31
0.0
  0
LINE
  5
6E
  8
0
 10
226.37152298445909
 20
195.53265854254099
 30
0.0
 11
237.19672485346999
 21
198.43302055731149
 31
0.0
  0
LINE
  5
6F
  8
0
 10
223.47145899291249
 20
206.35793491735791
 30
0.0
 11
226.37152298445909
 21
195.53265854254099
 31
0.0
  0
LINE
  5
70
  8
0
  6
DASHED
 10
222.52277656550621
 20
205.06832882299759
 30
0.0
 11
223.4728149985811
 21
206.35817333593701
 31
0.0
  0
LINE
  5
71
  8
0
 10
226.37191041465019
 20
195.53170486822461
 30
0.0
 11
224.88876803870409
 21
196.2371854437861
 31
0.0
  0
LINE
  5
72
  8
0
 39
0.9473684476688504
 10
223.70579465384691
 20
200.65281673803659
 30
0.0
 11
224.92147608752461
 21
200.94452186956741
 31
0.0
  0
LINE
  5
73
  8
0
 10
222.52277656550621
 20
205.06832882299759
 30
0.0
 11
224.88876803870409
 21
196.2371854437861
 31
0.0
  0
CIRCLE
  5
74
  8
0
 39
1.1999999405816191
 10
245.12134119029261
 20
228.0083684577022
 30
0.0
 40
10.300000000000001
  0
CIRCLE
  5
75
  8
0
 39
1.1999999405816191
 10
245.12134119029261
 20
228.0083684577022
 30
0.0
 40
11.550000000000001
  0
CIRCLE
  5
76
  8
0
 39
1.1999999405816191
 10
223.9463888024828
 20
228.007891620544
 30
0.0
 40
2.0000231452286239
  0
CIRCLE
  5
77
  8
0
 39
1.1999999405816191
 10
266.29630847926347
 20
228.007891620544
 30
0.0
 40
2.0000231452286239
  0
INSERT
  5
78
  8
0
  2
SST_STEMPEL
 10
255.374314504626
 20
246.3446315360209
 30
0.0
  0
ENDSEC
  0
EOF
