  0
SECTION
  2
HEADER
  9
$ACADVER
  1
AC1015
  9
$ACADMAINTVER
 70
    20
  9
$DWGCODEPAGE
  3
ANSI_1252
  9
$INSBASE
 10
235.8851281343406
 20
229.9953253218645
 30
0.0
  9
$EXTMIN
 10
204.7769126831
 20
198.8870055624956
 30
0.0
  9
$EXTMAX
 10
266.9933584867423
 20
261.1035854765887
 30
1.199999940581619
  9
$LIMMIN
 10
0.0
 20
0.0
  9
$LIMMAX
 10
420.0
 20
297.0
  9
$ORTHOMODE
 70
     0
  9
$REGENMODE
 70
     1
  9
$FILLMODE
 70
     1
  9
$QTEXTMODE
 70
     0
  9
$MIRRTEXT
 70
     0
  9
$LTSCALE
 40
1.0
  9
$ATTMODE
 70
     1
  9
$TEXTSIZE
 40
2.5
  9
$TRACEWID
 40
1.0
  9
$TEXTSTYLE
  7
Standard
  9
$CLAYER
  8
0
  9
$CELTYPE
  6
ByLayer
  9
$CECOLOR
 62
   256
  9
$CELTSCALE
 40
1.0
  9
$DISPSILH
 70
     0
  9
$DIMSCALE
 40
1.0
  9
$DIMASZ
 40
2.5
  9
$DIMEXO
 40
0.625
  9
$DIMDLI
 40
3.75
  9
$DIMRND
 40
0.0
  9
$DIMDLE
 40
0.0
  9
$DIMEXE
 40
1.25
  9
$DIMTP
 40
0.0
  9
$DIMTM
 40
0.0
  9
$DIMTXT
 40
2.5
  9
$DIMCEN
 40
2.5
  9
$DIMTSZ
 40
0.0
  9
$DIMTOL
 70
     0
  9
$DIMLIM
 70
     0
  9
$DIMTIH
 70
     0
  9
$DIMTOH
 70
     0
  9
$DIMSE1
 70
     0
  9
$DIMSE2
 70
     0
  9
$DIMTAD
 70
     1
  9
$DIMZIN
 70
     8
  9
$DIMBLK
  1

  9
$DIMASO
 70
     1
  9
$DIMSHO
 70
     1
  9
$DIMPOST
  1

  9
$DIMAPOST
  1

  9
$DIMALT
 70
     0
  9
$DIMALTD
 70
     3
  9
$DIMALTF
 40
0.03937007874016
  9
$DIMLFAC
 40
1.0
  9
$DIMTOFL
 70
     1
  9
$DIMTVP
 40
0.0
  9
$DIMTIX
 70
     0
  9
$DIMSOXD
 70
     0
  9
$DIMSAH
 70
     0
  9
$DIMBLK1
  1

  9
$DIMBLK2
  1

  9
$DIMSTYLE
  2
ISO-25
  9
$DIMCLRD
 70
     0
  9
$DIMCLRE
 70
     0
  9
$DIMCLRT
 70
     0
  9
$DIMTFAC
 40
1.0
  9
$DIMGAP
 40
0.625
  9
$DIMJUST
 70
     0
  9
$DIMSD1
 70
     0
  9
$DIMSD2
 70
     0
  9
$DIMTOLJ
 70
     0
  9
$DIMTZIN
 70
     8
  9
$DIMALTZ
 70
     0
  9
$DIMALTTZ
 70
     0
  9
$DIMUPT
 70
     0
  9
$DIMDEC
 70
     2
  9
$DIMTDEC
 70
     2
  9
$DIMALTU
 70
     2
  9
$DIMALTTD
 70
     3
  9
$DIMTXSTY
  7
Standard
  9
$DIMAUNIT
 70
     0
  9
$DIMADEC
 70
     0
  9
$DIMALTRND
 40
0.0
  9
$DIMAZIN
 70
     0
  9
$DIMDSEP
 70
    44
  9
$DIMATFIT
 70
     3
  9
$DIMFRAC
 70
     0
  9
$DIMLDRBLK
  1

  9
$DIMLUNIT
 70
     2
  9
$DIMLWD
 70
    -2
  9
$DIMLWE
 70
    -2
  9
$DIMTMOVE
 70
     0
  9
$LUNITS
 70
     2
  9
$LUPREC
 70
     4
  9
$SKETCHINC
 40
1.0
  9
$FILLETRAD
 40
0.0
  9
$AUNITS
 70
     0
  9
$AUPREC
 70
     0
  9
$MENU
  1
.
  9
$ELEVATION
 40
0.0
  9
$PELEVATION
 40
0.0
  9
$THICKNESS
 40
0.0
  9
$LIMCHECK
 70
     0
  9
$CHAMFERA
 40
0.0
  9
$CHAMFERB
 40
0.0
  9
$CHAMFERC
 40
0.0
  9
$CHAMFERD
 40
0.0
  9
$SKPOLY
 70
     0
  9
$TDCREATE
 40
2453809.386277489
  9
$TDUCREATE
 40
2453809.344610822
  9
$TDUPDATE
 40
2453809.487692245
  9
$TDUUPDATE
 40
2453809.446025579
  9
$TDINDWG
 40
0.0748061343
  9
$TDUSRTIMER
 40
0.0748061343
  9
$USRTIMER
 70
     1
  9
$ANGBASE
 50
0.0
  9
$ANGDIR
 70
     0
  9
$PDMODE
 70
     0
  9
$PDSIZE
 40
0.0
  9
$PLINEWID
 40
0.0
  9
$SPLFRAME
 70
     0
  9
$SPLINETYPE
 70
     6
  9
$SPLINESEGS
 70
     8
  9
$HANDSEED
  5
91
  9
$SURFTAB1
 70
     6
  9
$SURFTAB2
 70
     6
  9
$SURFTYPE
 70
     6
  9
$SURFU
 70
     6
  9
$SURFV
 70
     6
  9
$UCSBASE
  2

  9
$UCSNAME
  2

  9
$UCSORG
 10
0.0
 20
0.0
 30
0.0
  9
$UCSXDIR
 10
1.0
 20
0.0
 30
0.0
  9
$UCSYDIR
 10
0.0
 20
1.0
 30
0.0
  9
$UCSORTHOREF
  2

  9
$UCSORTHOVIEW
 70
     0
  9
$UCSORGTOP
 10
0.0
 20
0.0
 30
0.0
  9
$UCSORGBOTTOM
 10
0.0
 20
0.0
 30
0.0
  9
$UCSORGLEFT
 10
0.0
 20
0.0
 30
0.0
  9
$UCSORGRIGHT
 10
0.0
 20
0.0
 30
0.0
  9
$UCSORGFRONT
 10
0.0
 20
0.0
 30
0.0
  9
$UCSORGBACK
 10
0.0
 20
0.0
 30
0.0
  9
$PUCSBASE
  2

  9
$PUCSNAME
  2

  9
$PUCSORG
 10
0.0
 20
0.0
 30
0.0
  9
$PUCSXDIR
 10
1.0
 20
0.0
 30
0.0
  9
$PUCSYDIR
 10
0.0
 20
1.0
 30
0.0
  9
$PUCSORTHOREF
  2

  9
$PUCSORTHOVIEW
 70
     0
  9
$PUCSORGTOP
 10
0.0
 20
0.0
 30
0.0
  9
$PUCSORGBOTTOM
 10
0.0
 20
0.0
 30
0.0
  9
$PUCSORGLEFT
 10
0.0
 20
0.0
 30
0.0
  9
$PUCSORGRIGHT
 10
0.0
 20
0.0
 30
0.0
  9
$PUCSORGFRONT
 10
0.0
 20
0.0
 30
0.0
  9
$PUCSORGBACK
 10
0.0
 20
0.0
 30
0.0
  9
$USERI1
 70
     0
  9
$USERI2
 70
     0
  9
$USERI3
 70
     0
  9
$USERI4
 70
     0
  9
$USERI5
 70
     0
  9
$USERR1
 40
0.0
  9
$USERR2
 40
0.0
  9
$USERR3
 40
0.0
  9
$USERR4
 40
0.0
  9
$USERR5
 40
0.0
  9
$WORLDVIEW
 70
     1
  9
$SHADEDGE
 70
     3
  9
$SHADEDIF
 70
    70
  9
$TILEMODE
 70
     1
  9
$MAXACTVP
 70
    64
  9
$PINSBASE
 10
0.0
 20
0.0
 30
0.0
  9
$PLIMCHECK
 70
     0
  9
$PEXTMIN
 10
1.000000000000000E+20
 20
1.000000000000000E+20
 30
1.000000000000000E+20
  9
$PEXTMAX
 10
-1.000000000000000E+20
 20
-1.000000000000000E+20
 30
-1.000000000000000E+20
  9
$PLIMMIN
 10
0.0
 20
0.0
  9
$PLIMMAX
 10
420.0
 20
297.0
  9
$UNITMODE
 70
     0
  9
$VISRETAIN
 70
     1
  9
$PLINEGEN
 70
     0
  9
$PSLTSCALE
 70
     1
  9
$TREEDEPTH
 70
  3020
  9
$CMLSTYLE
  2
Standard
  9
$CMLJUST
 70
     0
  9
$CMLSCALE
 40
20.0
  9
$PROXYGRAPHICS
 70
     1
  9
$MEASUREMENT
 70
     1
  9
$CELWEIGHT
370
    -1
  9
$ENDCAPS
280
     0
  9
$JOINSTYLE
280
     0
  9
$LWDISPLAY
290
     0
  9
$INSUNITS
 70
     4
  9
$HYPERLINKBASE
  1

  9
$STYLESHEET
  1

  9
$XEDIT
290
     1
  9
$CEPSNTYPE
380
     0
  9
$PSTYLEMODE
290
     1
  9
$FINGERPRINTGUID
  2
{8E531ED2-99FE-4346-9F36-7FAF35BC755E}
  9
$VERSIONGUID
  2
{23A6E18B-94CE-4A41-9EB5-1E22A564CCC8}
  9
$EXTNAMES
290
     1
  9
$PSVPSCALE
 40
0.0
  9
$OLESTARTUP
290
     0
  0
ENDSEC
  0
SECTION
  2
CLASSES
  0
CLASS
  1
ACDBDICTIONARYWDFLT
  2
AcDbDictionaryWithDefault
  3
ObjectDBX Classes
 90
        0
280
     0
281
     0
  0
CLASS
  1
TABLESTYLE
  2
AcDbTableStyle
  3
ObjectDBX Classes
 90
     2047
280
     0
281
     0
  0
CLASS
  1
SORTENTSTABLE
  2
AcDbSortentsTable
  3
ObjectDBX Classes
 90
        0
280
     0
281
     0
  0
CLASS
  1
DICTIONARYVAR
  2
AcDbDictionaryVar
  3
ObjectDBX Classes
 90
        0
280
     0
281
     0
  0
CLASS
  1
ACDBPLACEHOLDER
  2
AcDbPlaceHolder
  3
ObjectDBX Classes
 90
        0
280
     0
281
     0
  0
CLASS
  1
LAYOUT
  2
AcDbLayout
  3
ObjectDBX Classes
 90
        0
280
     0
281
     0
  0
ENDSEC
  0
SECTION
  2
TABLES
  0
TABLE
  2
VPORT
  5
1B
330
0
100
AcDbSymbolTable
 70
     2
  0
VPORT
  5
8B
330
1B
100
AcDbSymbolTableRecord
100
AcDbViewportTableRecord
  2
*Active
 70
     0
 10
0.0
 20
0.0
 11
1.0
 21
1.0
 12
237.0587220410952
 22
228.7651973187602
 13
0.0
 23
0.0
 14
10.0
 24
10.0
 15
10.0
 25
10.0
 16
0.0
 26
0.0
 36
1.0
 17
0.0
 27
0.0
 37
0.0
 40
116.768024657795
 41
1.985626283367556
 42
50.0
 43
0.0
 44
0.0
 50
0.0
 51
0.0
 71
     0
 72
  1000
 73
     1
 74
     3
 75
     0
 76
     0
 77
     0
 78
     0
281
     0
 65
     1
110
0.0
120
0.0
130
0.0
111
1.0
121
0.0
131
0.0
112
0.0
122
1.0
132
0.0
 79
     0
146
0.0
  0
ENDTAB
  0
TABLE
  2
LTYPE
  5
16
330
0
100
AcDbSymbolTable
 70
     2
  0
LTYPE
  5
17
330
16
100
AcDbSymbolTableRecord
100
AcDbLinetypeTableRecord
  2
ByBlock
 70
     0
  3

 72
    65
 73
     0
 40
0.0
  0
LTYPE
  5
18
330
16
100
AcDbSymbolTableRecord
100
AcDbLinetypeTableRecord
  2
ByLayer
 70
     0
  3

 72
    65
 73
     0
 40
0.0
  0
LTYPE
  5
8
330
16
100
AcDbSymbolTableRecord
100
AcDbLinetypeTableRecord
  2
Continuous
 70
     0
  3
Solid line
 72
    65
 73
     0
 40
0.0
  0
LTYPE
  5
2D
330
16
100
AcDbSymbolTableRecord
100
AcDbLinetypeTableRecord
  2
DASHED
 70
     0
  3
__ __ __ __ __ __ __ __ __ __ __ __ __ __ __ __
 72
    65
 73
     2
 40
0.75
 49
0.5
 74
     0
 49
-0.25
 74
     0
  0
ENDTAB
  0
TABLE
  2
LAYER
  5
10
102
{ACAD_XDICTIONARY
360
11
102
}
330
0
100
AcDbSymbolTable
 70
     1
  0
LAYER
  5
4
330
10
100
AcDbSymbolTableRecord
100
AcDbLayerTableRecord
  2
0
 70
     0
 62
     7
  6
Continuous
370
    -3
390
5
  0
ENDTAB
  0
TABLE
  2
STYLE
  5
13
330
0
100
AcDbSymbolTable
 70
     2
  0
STYLE
  5
14
330
13
100
AcDbSymbolTableRecord
100
AcDbTextStyleTableRecord
  2
Standard
 70
     0
 40
0.0
 41
1.0
 50
0.0
 71
     0
 42
2.5
  3
txt
  4

  0
STYLE
  5
7D
330
13
100
AcDbSymbolTableRecord
100
AcDbTextStyleTableRecord
  2
SST
 70
     0
 40
0.0
 41
1.0
 50
0.0
 71
     0
 42
3.5
  3
romans.shx
  4

  0
ENDTAB
  0
TABLE
  2
VIEW
  5
19
330
0
100
AcDbSymbolTable
 70
     0
  0
ENDTAB
  0
TABLE
  2
UCS
  5
1A
330
0
100
AcDbSymbolTable
 70
     0
  0
ENDTAB
  0
TABLE
  2
APPID
  5
1D
330
0
100
AcDbSymbolTable
 70
     1
  0
APPID
  5
1E
330
1D
100
AcDbSymbolTableRecord
100
AcDbRegAppTableRecord
  2
ACAD
 70
     0
  0
ENDTAB
  0
TABLE
  2
DIMSTYLE
  5
1F
330
0
100
AcDbSymbolTable
 70
     1
100
AcDbDimStyleTable
 71
     0
  0
DIMSTYLE
105
29
330
1F
100
AcDbSymbolTableRecord
100
AcDbDimStyleTableRecord
  2
ISO-25
 70
     0
 41
2.5
 42
0.625
 43
3.75
 44
1.25
 73
     0
 74
     0
 77
     1
 78
     8
140
2.5
141
2.5
143
0.03937007874016
147
0.625
171
     3
172
     1
271
     2
272
     2
274
     3
278
    44
283
     0
284
     8
340
14
  0
ENDTAB
  0
TABLE
  2
BLOCK_RECORD
  5
1
330
0
100
AcDbSymbolTable
 70
     1
  0
BLOCK_RECORD
  5
2
330
1
100
AcDbSymbolTableRecord
100
AcDbBlockTableRecord
  2
*Model_Space
340
A
  0
BLOCK_RECORD
  5
C
330
1
100
AcDbSymbolTableRecord
100
AcDbBlockTableRecord
  2
*Paper_Space
340
F
  0
BLOCK_RECORD
  5
78
102
{ACAD_XDICTIONARY
360
79
102
}
330
1
100
AcDbSymbolTableRecord
100
AcDbBlockTableRecord
  2
SST_STEMPEL
340
0
102
{BLKREFS
331
77
102
}
  0
ENDTAB
  0
ENDSEC
  0
SECTION
  2
BLOCKS
  0
BLOCK
  5
3
330
2
100
AcDbEntity
  8
0
100
AcDbBlockBegin
  2
*Model_Space
 70
     0
 10
0.0
 20
0.0
 30
0.0
  3
*Model_Space
  1

  0
ENDBLK
  5
9
330
2
100
AcDbEntity
  8
0
100
AcDbBlockEnd
  0
BLOCK
  5
D
330
C
100
AcDbEntity
 67
     1
  8
0
100
AcDbBlockBegin
  2
*Paper_Space
 70
     0
 10
0.0
 20
0.0
 30
0.0
  3
*Paper_Space
  1

  0
ENDBLK
  5
E
330
C
100
AcDbEntity
 67
     1
  8
0
100
AcDbBlockEnd
  0
BLOCK
  5
7B
330
78
100
AcDbEntity
  8
0
100
AcDbBlockBegin
  2
SST_STEMPEL
 70
     0
 10
0.0
 20
0.0
 30
0.0
  3
SST_STEMPEL
  1

  0
TEXT
  5
7C
330
78
100
AcDbEntity
  8
0
  6
Continuous
100
AcDbText
 10
-3.741149563515705
 20
3.992811447199528
 30
0.0
 40
2.0
  1
SIMPSON
 50
316.9414863909134
  7
SST
100
AcDbText
  0
TEXT
  5
7E
330
78
100
AcDbEntity
  8
0
  6
Continuous
100
AcDbText
 10
-6.656222857237139
 20
3.112015578657064
 30
0.0
 40
2.0
  1
Strong-Tie
 50
316.9414863909134
  7
SST
100
AcDbText
  0
ENDBLK
  5
7F
330
78
100
AcDbEntity
  8
0
100
AcDbBlockEnd
  0
ENDSEC
  0
SECTION
  2
ENTITIES
  0
LINE
  5
2A
330
2
100
AcDbEntity
  8
0
100
AcDbLine
 10
235.8851281343406
 20
198.9956052252764
 30
0.0
 11
242.4363044439262
 21
205.5463345000262
 31
0.0
  0
LINE
  5
2B
330
2
100
AcDbEntity
  8
0
100
AcDbLine
 10
229.3345180688804
 20
205.5468113371844
 30
0.0
 11
235.8851281343406
 21
198.9956052252764
 31
0.0
  0
LINE
  5
2C
330
2
100
AcDbEntity
  8
0
  6
DASHED
100
AcDbLine
 10
229.1883674798911
 20
204.2315156409258
 30
0.0
 11
229.3353525339072
 21
205.5475861975665
 31
0.0
  0
LINE
  5
2E
330
2
100
AcDbEntity
  8
0
100
AcDbLine
 10
235.8857837854331
 20
198.9950091788286
 30
0.0
 11
234.5324007211631
 21
198.8870055624956
 31
0.0
  0
LINE
  5
2F
330
2
100
AcDbEntity
  8
0
100
AcDbLine
 39
0.7831579423509539
 10
231.8603244958823
 20
201.5593202063555
 30
0.0
 11
232.6101509271568
 21
202.2705824324602
 31
0.0
  0
LINE
  5
30
330
2
100
AcDbEntity
  8
0
100
AcDbLine
 10
229.1883674798911
 20
204.2315156409258
 30
0.0
 11
234.5324007211631
 21
198.8870055624956
 31
0.0
  0
LINE
  5
31
330
2
100
AcDbEntity
  8
0
100
AcDbLine
 10
251.3849583803123
 20
203.1487972685809
 30
0.0
 11
253.7830916582053
 21
212.0974810072894
 31
0.0
  0
LINE
  5
32
330
2
100
AcDbEntity
  8
0
100
AcDbLine
 10
242.4363938508933
 20
205.5469901511187
 30
0.0
 11
251.3849583803123
 21
203.1487972685809
 31
0.0
  0
LINE
  5
33
330
2
100
AcDbEntity
  8
0
  6
DASHED
100
AcDbLine
 10
242.9674712358421
 20
204.3348104903216
 30
0.0
 11
242.4367216764396
 21
205.5480630347247
 31
0.0
  0
LINE
  5
34
330
2
100
AcDbEntity
  8
0
100
AcDbLine
 10
251.3858524499839
 20
203.1486184546465
 30
0.0
 11
250.2677885232871
 21
202.3784072348589
 31
0.0
  0
LINE
  5
35
330
2
100
AcDbEntity
  8
0
100
AcDbLine
 39
0.7831579423509539
 10
246.6175702749198
 20
203.3566386649126
 30
0.0
 11
246.9112721620505
 21
204.3475062796587
 31
0.0
  0
LINE
  5
36
330
2
100
AcDbEntity
  8
0
100
AcDbLine
 10
242.9674712358421
 20
204.3348104903216
 30
0.0
 11
250.2677885232871
 21
202.3784072348589
 31
0.0
  0
LINE
  5
37
330
2
100
AcDbEntity
  8
0
100
AcDbLine
 10
262.7316561876242
 20
214.4954950758929
 30
0.0
 11
260.3341189561789
 21
223.4442384192461
 31
0.0
  0
LINE
  5
38
330
2
100
AcDbEntity
  8
0
100
AcDbLine
 10
253.7828234373038
 20
212.0980770537371
 30
0.0
 11
262.7316561876242
 21
214.4954950758929
 31
0.0
  0
LINE
  5
39
330
2
100
AcDbEntity
  8
0
  6
DASHED
100
AcDbLine
 10
254.8488525091117
 20
211.3138587424273
 30
0.0
 11
253.7825850187247
 21
212.0991499373431
 31
0.0
  0
LINE
  5
3A
330
2
100
AcDbEntity
  8
0
100
AcDbLine
 10
262.7324906526511
 20
214.4957930991167
 30
0.0
 11
262.1492890058463
 21
213.269725556087
 31
0.0
  0
LINE
  5
3B
330
2
100
AcDbEntity
  8
0
100
AcDbLine
 39
0.7831579423509539
 10
258.499070757479
 20
212.2917921492571
 30
0.0
 11
258.2579103647177
 21
213.2967264601702
 31
0.0
  0
LINE
  5
3C
330
2
100
AcDbEntity
  8
0
100
AcDbLine
 10
254.8488525091117
 20
211.3138587424273
 30
0.0
 11
262.1492890058463
 21
213.269725556087
 31
0.0
  0
LINE
  5
3D
330
2
100
AcDbEntity
  8
0
100
AcDbLine
 10
266.8848482309287
 20
229.9953253218645
 30
0.0
 11
260.3340891538565
 21
236.5464718291277
 31
0.0
  0
LINE
  5
3E
330
2
100
AcDbEntity
  8
0
100
AcDbLine
 10
260.3336421190207
 20
223.4447152564043
 30
0.0
 11
266.8848482309287
 21
229.9953253218645
 31
0.0
  0
LINE
  5
3F
330
2
100
AcDbEntity
  8
0
  6
DASHED
100
AcDbLine
 10
261.6489378152793
 20
223.2985050627703
 30
0.0
 11
260.3328374563163
 21
223.4454901167864
 31
0.0
  0
LINE
  5
40
330
2
100
AcDbEntity
  8
0
100
AcDbLine
 10
266.885414475054
 20
229.9959809729571
 30
0.0
 11
266.9933584867423
 21
228.6425979086871
 31
0.0
  0
LINE
  5
41
330
2
100
AcDbEntity
  8
0
100
AcDbLine
 39
0.7831579423509539
 10
264.3211332498496
 20
225.9705216834063
 30
0.0
 11
263.6098114191001
 21
226.7202885100359
 31
0.0
  0
LINE
  5
42
330
2
100
AcDbEntity
  8
0
100
AcDbLine
 10
261.6489378152793
 20
223.2985050627703
 30
0.0
 11
266.9933584867423
 21
228.6425979086871
 31
0.0
  0
LINE
  5
43
330
2
100
AcDbEntity
  8
0
100
AcDbLine
 10
262.7316561876242
 20
245.4951555678362
 30
0.0
 11
253.7829724489158
 21
247.8932292410845
 31
0.0
  0
LINE
  5
44
330
2
100
AcDbEntity
  8
0
100
AcDbLine
 10
260.3334633050864
 20
236.5465910384173
 30
0.0
 11
262.7316561876242
 21
245.4951555678362
 31
0.0
  0
LINE
  5
45
330
2
100
AcDbEntity
  8
0
  6
DASHED
100
AcDbLine
 10
261.5456429658835
 20
237.0776088187212
 30
0.0
 11
260.3323308168357
 21
236.5468294569964
 31
0.0
  0
LINE
  5
46
330
2
100
AcDbEntity
  8
0
100
AcDbLine
 10
262.7318051992362
 20
245.4960496375079
 30
0.0
 11
263.5020164190238
 21
244.3779261061663
 31
0.0
  0
LINE
  5
47
330
2
100
AcDbEntity
  8
0
100
AcDbLine
 39
0.7831579423509539
 10
262.5238147912924
 20
240.7277972647662
 30
0.0
 11
261.5328875719016
 21
241.0214097449297
 31
0.0
  0
LINE
  5
48
330
2
100
AcDbEntity
  8
0
100
AcDbLine
 10
261.5456429658835
 20
237.0776088187212
 30
0.0
 11
263.5020164190238
 21
244.3779261061663
 31
0.0
  0
LINE
  5
49
330
2
100
AcDbEntity
  8
0
100
AcDbLine
 10
251.3849583803123
 20
256.8418533751482
 30
0.0
 11
242.4361554323142
 21
254.4443161437029
 31
0.0
  0
LINE
  5
4A
330
2
100
AcDbEntity
  8
0
100
AcDbLine
 10
253.7824062047904
 20
247.8930504271502
 30
0.0
 11
251.3849583803123
 21
256.8418533751482
 31
0.0
  0
LINE
  5
4B
330
2
100
AcDbEntity
  8
0
  6
DASHED
100
AcDbLine
 10
254.5665947137778
 20
248.9590198943133
 30
0.0
 11
253.7812439142173
 21
247.8926927992815
 31
0.0
  0
LINE
  5
4C
330
2
100
AcDbEntity
  8
0
100
AcDbLine
 10
251.3846901594108
 20
256.8426878401751
 30
0.0
 11
252.6107279001182
 21
256.2595159956927
 31
0.0
  0
LINE
  5
4D
330
2
100
AcDbEntity
  8
0
100
AcDbLine
 39
0.7831579423509539
 10
253.588661306948
 20
252.6092083403582
 30
0.0
 11
252.5836971937125
 21
252.368047947597
 31
0.0
  0
LINE
  5
4E
330
2
100
AcDbEntity
  8
0
100
AcDbLine
 10
254.5665947137778
 20
248.9590198943133
 30
0.0
 11
252.6107279001182
 21
256.2595159956927
 31
0.0
  0
LINE
  5
4F
330
2
100
AcDbEntity
  8
0
100
AcDbLine
 10
235.8851281343406
 20
260.9950454184527
 30
0.0
 11
229.3339816270774
 21
254.4442565390582
 31
0.0
  0
LINE
  5
50
330
2
100
AcDbEntity
  8
0
100
AcDbLine
 10
242.4357680021232
 20
254.4438393065447
 30
0.0
 11
235.8851281343406
 21
260.9950454184527
 31
0.0
  0
LINE
  5
51
330
2
100
AcDbEntity
  8
0
  6
DASHED
100
AcDbLine
 10
242.5819185911124
 20
255.7591350028033
 30
0.0
 11
242.4348739324515
 21
254.4430048415179
 31
0.0
  0
LINE
  5
52
330
2
100
AcDbEntity
  8
0
100
AcDbLine
 10
235.8844724832481
 20
260.9955818602557
 30
0.0
 11
237.2378257451957
 21
261.1035854765887
 31
0.0
  0
LINE
  5
53
330
2
100
AcDbEntity
  8
0
100
AcDbLine
 39
0.7831579423509539
 10
239.9099019704765
 20
258.4312708327288
 30
0.0
 11
239.1601351438468
 21
257.7199490019793
 31
0.0
  0
LINE
  5
54
330
2
100
AcDbEntity
  8
0
100
AcDbLine
 10
242.5819185911124
 20
255.7591350028033
 30
0.0
 11
237.2378257451957
 21
261.1035854765887
 31
0.0
  0
LINE
  5
55
330
2
100
AcDbEntity
  8
0
100
AcDbLine
 10
220.3852680860465
 20
256.8418533751482
 30
0.0
 11
217.9871944127982
 21
247.8931696364397
 31
0.0
  0
LINE
  5
56
330
2
100
AcDbEntity
  8
0
100
AcDbLine
 10
229.3338922201102
 20
254.4436604926104
 30
0.0
 11
220.3852680860465
 21
256.8418533751482
 31
0.0
  0
LINE
  5
57
330
2
100
AcDbEntity
  8
0
  6
DASHED
100
AcDbLine
 10
228.8028148351615
 20
255.6558401534075
 30
0.0
 11
229.333564394564
 21
254.4425280043597
 31
0.0
  0
LINE
  5
58
330
2
100
AcDbEntity
  8
0
100
AcDbLine
 10
220.3843889175361
 20
256.8420321890826
 30
0.0
 11
221.5024975477164
 21
257.6122434088702
 31
0.0
  0
LINE
  5
59
330
2
100
AcDbEntity
  8
0
100
AcDbLine
 39
0.7831579423509539
 10
225.1527157960838
 20
256.6339523741717
 30
0.0
 11
224.859013908953
 21
255.6430847594256
 31
0.0
  0
LINE
  5
5A
330
2
100
AcDbEntity
  8
0
100
AcDbLine
 10
228.8028148351615
 20
255.6558401534075
 30
0.0
 11
221.5024975477164
 21
257.6122434088702
 31
0.0
  0
LINE
  5
5B
330
2
100
AcDbEntity
  8
0
100
AcDbLine
 10
209.0386149822181
 20
245.4951555678362
 30
0.0
 11
211.4361522136634
 21
236.5463526198382
 31
0.0
  0
LINE
  5
5C
330
2
100
AcDbEntity
  8
0
100
AcDbLine
 10
217.9873881278937
 20
247.892573589992
 30
0.0
 11
209.0386149822181
 21
245.4951555678362
 31
0.0
  0
LINE
  5
5D
330
2
100
AcDbEntity
  8
0
  6
DASHED
100
AcDbLine
 10
216.9214186607307
 20
248.6767919013018
 30
0.0
 11
217.9876861511176
 21
247.8913814970965
 31
0.0
  0
LINE
  5
5E
330
2
100
AcDbEntity
  8
0
100
AcDbLine
 10
209.0377954183524
 20
245.4948575446123
 30
0.0
 11
209.6209523616737
 21
246.7209250876421
 31
0.0
  0
LINE
  5
5F
330
2
100
AcDbEntity
  8
0
100
AcDbLine
 39
0.7831579423509539
 10
213.2712600170081
 20
247.698858494472
 30
0.0
 11
213.5123757062858
 21
246.6938645789141
 31
0.0
  0
LINE
  5
60
330
2
100
AcDbEntity
  8
0
100
AcDbLine
 10
216.9214186607307
 20
248.6767919013018
 30
0.0
 11
209.6209523616737
 21
246.7209250876421
 31
0.0
  0
LINE
  5
61
330
2
100
AcDbEntity
  8
0
100
AcDbLine
 10
204.8854378400748
 20
229.9953253218645
 30
0.0
 11
211.436196917147
 21
223.4441788146014
 31
0.0
  0
LINE
  5
62
330
2
100
AcDbEntity
  8
0
100
AcDbLine
 10
211.4366290508216
 20
236.5459353873248
 30
0.0
 11
204.8854378400748
 21
229.9953253218645
 31
0.0
  0
LINE
  5
63
330
2
100
AcDbEntity
  8
0
  6
DASHED
100
AcDbLine
 10
210.1213482557243
 20
236.6921455809588
 30
0.0
 11
211.4374486146873
 21
236.5450413176531
 31
0.0
  0
LINE
  5
64
330
2
100
AcDbEntity
  8
0
100
AcDbLine
 10
204.8848566947883
 20
229.9946100661272
 30
0.0
 11
204.7769126831
 21
231.348052735042
 31
0.0
  0
LINE
  5
65
330
2
100
AcDbEntity
  8
0
100
AcDbLine
 39
0.7831579423509539
 10
207.4491826234763
 20
234.020069355678
 30
0.0
 11
208.1604746519035
 21
233.2703025290484
 31
0.0
  0
LINE
  5
66
330
2
100
AcDbEntity
  8
0
100
AcDbLine
 10
210.1213482557243
 20
236.6921455809588
 30
0.0
 11
204.7769126831
 21
231.348052735042
 31
0.0
  0
LINE
  5
67
330
2
100
AcDbEntity
  8
0
100
AcDbLine
 10
209.0386149822181
 20
214.4954950758929
 30
0.0
 11
217.9872987209266
 21
212.0974214026446
 31
0.0
  0
LINE
  5
68
330
2
100
AcDbEntity
  8
0
100
AcDbLine
 10
211.4368227659171
 20
223.4440596053118
 30
0.0
 11
209.0386149822181
 21
214.4954950758929
 31
0.0
  0
LINE
  5
69
330
2
100
AcDbEntity
  8
0
  6
DASHED
100
AcDbLine
 10
210.22464310512
 20
222.9130418250079
 30
0.0
 11
211.4379403530067
 21
223.4437019774432
 31
0.0
  0
LINE
  5
6A
330
2
100
AcDbEntity
  8
0
100
AcDbLine
 10
209.0384808717673
 20
214.4946010062212
 30
0.0
 11
208.2682696519797
 21
215.6127245375628
 31
0.0
  0
LINE
  5
6B
330
2
100
AcDbEntity
  8
0
100
AcDbLine
 39
0.7831579423509539
 10
209.2465010820335
 20
219.2629129836077
 30
0.0
 11
210.2373835979407
 21
218.9691812941546
 31
0.0
  0
LINE
  5
6C
330
2
100
AcDbEntity
  8
0
100
AcDbLine
 10
210.22464310512
 20
222.9130418250079
 30
0.0
 11
208.2682696519797
 21
215.6127245375628
 31
0.0
  0
LINE
  5
6D
330
2
100
AcDbEntity
  8
0
100
AcDbLine
 10
220.3852680860465
 20
203.1487972685809
 30
0.0
 11
229.3341306386893
 21
205.5463345000262
 31
0.0
  0
LINE
  5
6E
330
2
100
AcDbEntity
  8
0
100
AcDbLine
 10
217.9878798662131
 20
212.0976002165789
 30
0.0
 11
220.3852680860465
 21
203.1487972685809
 31
0.0
  0
LINE
  5
6F
330
2
100
AcDbEntity
  8
0
  6
DASHED
100
AcDbLine
 10
217.2036764560645
 20
211.0316307494158
 30
0.0
 11
217.9889974533027
 21
212.097838635158
 31
0.0
  0
LINE
  5
70
330
2
100
AcDbEntity
  8
0
100
AcDbLine
 10
220.3855959115928
 20
203.147962803554
 30
0.0
 11
219.1595134674018
 21
203.7311346480364
 31
0.0
  0
LINE
  5
71
330
2
100
AcDbEntity
  8
0
100
AcDbLine
 39
0.7831579423509539
 10
218.1816247640556
 20
207.3814423033709
 30
0.0
 11
219.1865441738074
 21
207.6224834868426
 31
0.0
  0
LINE
  5
72
330
2
100
AcDbEntity
  8
0
100
AcDbLine
 10
217.2036764560645
 20
211.0316307494158
 30
0.0
 11
219.1595134674018
 21
203.7311346480364
 31
0.0
  0
CIRCLE
  5
73
330
2
100
AcDbEntity
  8
0
100
AcDbCircle
 39
1.199999940581619
 10
219.6834084926551
 20
229.9949080893511
 30
0.0
 40
2.000023378059267
  0
CIRCLE
  5
74
330
2
100
AcDbEntity
  8
0
100
AcDbCircle
 39
1.199999940581619
 10
252.0868626771873
 20
229.9949080893511
 30
0.0
 40
2.000023378059267
  0
CIRCLE
  5
75
330
2
100
AcDbEntity
  8
0
  6
Continuous
100
AcDbCircle
 10
235.8851281343406
 20
229.9953253218645
 30
0.0
 40
8.224999999999999
  0
CIRCLE
  5
76
330
2
100
AcDbEntity
  8
0
  6
Continuous
100
AcDbCircle
 10
235.8851281343406
 20
229.9953253218645
 30
0.0
 40
9.224999999999999
  0
INSERT
  5
77
330
2
100
AcDbEntity
  8
0
100
AcDbBlockReference
  2
SST_STEMPEL
 10
242.2062417159884
 20
246.3446315360209
 30
0.0
  0
ENDSEC
  0
SECTION
  2
OBJECTS
  0
DICTIONARY
  5
7
330
0
100
AcDbDictionary
281
     1
  3
ACAD_COLOR
350
25
  3
ACAD_GROUP
350
21
  3
ACAD_LAYOUT
350
B
  3
ACAD_MATERIAL
350
24
  3
ACAD_MLINESTYLE
350
22
  3
ACAD_PLOTSETTINGS
350
23
  3
ACAD_PLOTSTYLENAME
350
6
  3
ACAD_TABLESTYLE
350
26
  3
ACDBHEADERROUNDTRIPXREC
350
8C
  3
AcDbVariableDictionary
350
81
  0
DICTIONARY
  5
11
330
10
100
AcDbDictionary
280
     1
281
     1
  3
ACAD_LAYERSTATES
360
12
  0
DICTIONARY
  5
79
330
78
100
AcDbDictionary
280
     1
281
     1
  3
ACAD_SORTENTS
360
7A
  0
DICTIONARY
  5
25
102
{ACAD_REACTORS
330
7
102
}
330
7
100
AcDbDictionary
281
     1
  0
DICTIONARY
  5
21
102
{ACAD_REACTORS
330
7
102
}
330
7
100
AcDbDictionary
281
     1
  0
DICTIONARY
  5
B
102
{ACAD_REACTORS
330
7
102
}
330
7
100
AcDbDictionary
281
     1
  3
Layout1
350
F
  3
Model
350
A
  0
DICTIONARY
  5
24
102
{ACAD_REACTORS
330
7
102
}
330
7
100
AcDbDictionary
281
     1
  0
DICTIONARY
  5
22
102
{ACAD_REACTORS
330
7
102
}
330
7
100
AcDbDictionary
281
     1
  3
Standard
350
27
  0
DICTIONARY
  5
23
102
{ACAD_REACTORS
330
7
102
}
330
7
100
AcDbDictionary
281
     1
  0
ACDBDICTIONARYWDFLT
  5
6
102
{ACAD_REACTORS
330
7
102
}
330
7
100
AcDbDictionary
281
     1
  3
Normal
350
5
100
AcDbDictionaryWithDefault
340
5
  0
DICTIONARY
  5
26
102
{ACAD_REACTORS
330
7
102
}
330
7
100
AcDbDictionary
281
     1
  3
Standard
350
28
  0
DICTIONARY
  5
8C
102
{ACAD_REACTORS
330
7
102
}
330
7
100
AcDbDictionary
281
     1
  0
DICTIONARY
  5
81
102
{ACAD_REACTORS
330
7
102
}
330
7
100
AcDbDictionary
281
     1
  3
CTABLESTYLE
350
82
  3
DIMASSOC
350
89
  3
HIDETEXT
350
88
  3
PROJECTNAME
350
8A
  0
DICTIONARY
  5
12
102
{ACAD_REACTORS
330
11
102
}
330
11
100
AcDbDictionary
281
     1
  0
SORTENTSTABLE
  5
7A
102
{ACAD_REACTORS
330
79
102
}
330
79
100
AcDbSortentsTable
330
78
  0
LAYOUT
  5
F
102
{ACAD_XDICTIONARY
360
8F
102
}
102
{ACAD_REACTORS
330
B
102
}
330
B
100
AcDbPlotSettings
  1

  2
\\46nt\Lexmark Optra S 1855 plus
  4

  6

 40
0.0
 41
0.0
 42
0.0
 43
0.0
 44
0.0
 45
0.0
 46
0.0
 47
0.0
 48
0.0
 49
0.0
140
0.0
141
0.0
142
1.0
143
1.0
 70
   688
 72
     0
 73
     0
 74
     5
  7

 75
    16
147
1.0
148
0.0
149
0.0
100
AcDbLayout
  1
Layout1
 70
     1
 71
     1
 10
0.0
 20
0.0
 11
420.0
 21
297.0
 12
0.0
 22
0.0
 32
0.0
 14
1.000000000000000E+20
 24
1.000000000000000E+20
 34
1.000000000000000E+20
 15
-1.000000000000000E+20
 25
-1.000000000000000E+20
 35
-1.000000000000000E+20
146
0.0
 13
0.0
 23
0.0
 33
0.0
 16
1.0
 26
0.0
 36
0.0
 17
0.0
 27
1.0
 37
0.0
 76
     0
330
C
  0
LAYOUT
  5
A
102
{ACAD_XDICTIONARY
360
8D
102
}
102
{ACAD_REACTORS
330
B
102
}
330
B
100
AcDbPlotSettings
  1

  2
\\46nt\Lexmark Optra S 1855 plus
  4

  6

 40
0.0
 41
0.0
 42
0.0
 43
0.0
 44
0.0
 45
0.0
 46
0.0
 47
0.0
 48
0.0
 49
0.0
140
0.0
141
0.0
142
1.0
143
1.0
 70
  1712
 72
     0
 73
     0
 74
     0
  7

 75
     0
147
1.0
148
0.0
149
0.0
100
AcDbLayout
  1
Model
 70
     1
 71
     0
 10
0.0
 20
0.0
 11
12.0
 21
9.0
 12
0.0
 22
0.0
 32
0.0
 14
0.0
 24
0.0
 34
0.0
 15
0.0
 25
0.0
 35
0.0
146
0.0
 13
0.0
 23
0.0
 33
0.0
 16
1.0
 26
0.0
 36
0.0
 17
0.0
 27
1.0
 37
0.0
 76
     0
330
2
  0
MLINESTYLE
  5
27
102
{ACAD_REACTORS
330
22
102
}
330
22
100
AcDbMlineStyle
  2
STANDARD
 70
     0
  3

 62
   256
 51
90.0
 52
90.0
 71
     2
 49
0.5
 62
   256
  6
BYLAYER
 49
-0.5
 62
   256
  6
BYLAYER
  0
ACDBPLACEHOLDER
  5
5
102
{ACAD_REACTORS
330
6
102
}
330
6
  0
TABLESTYLE
  5
28
102
{ACAD_REACTORS
330
26
102
}
330
26
100
AcDbTableStyle
  3
Standard
 70
     0
 71
     0
 40
1.5
 41
1.5
280
     0
281
     0
  7
Standard
140
4.5
170
     2
 62
     0
 63
     7
283
     0
274
    -2
284
     1
 64
     0
275
    -2
285
     1
 65
     0
276
    -2
286
     1
 66
     0
277
    -2
287
     1
 67
     0
278
    -2
288
     1
 68
     0
279
    -2
289
     1
 69
     0
  7
Standard
140
6.0
170
     5
 62
     0
 63
     7
283
     0
274
    -2
284
     1
 64
     0
275
    -2
285
     1
 65
     0
276
    -2
286
     1
 66
     0
277
    -2
287
     1
 67
     0
278
    -2
288
     1
 68
     0
279
    -2
289
     1
 69
     0
  7
Standard
140
4.5
170
     5
 62
     0
 63
     7
283
     0
274
    -2
284
     1
 64
     0
275
    -2
285
     1
 65
     0
276
    -2
286
     1
 66
     0
277
    -2
287
     1
 67
     0
278
    -2
288
     1
 68
     0
279
    -2
289
     1
 69
     0
  0
DICTIONARYVAR
  5
82
102
{ACAD_REACTORS
330
81
102
}
330
81
100
DictionaryVariables
280
     0
  1
STANDARD
  0
DICTIONARYVAR
  5
89
102
{ACAD_REACTORS
330
81
102
}
330
81
100
DictionaryVariables
280
     0
  1
2
  0
DICTIONARYVAR
  5
88
102
{ACAD_REACTORS
330
81
102
}
330
81
100
DictionaryVariables
280
     0
  1
1
  0
DICTIONARYVAR
  5
8A
102
{ACAD_REACTORS
330
81
102
}
330
81
100
DictionaryVariables
280
     0
  1

  0
DICTIONARY
  5
8F
330
F
100
AcDbDictionary
280
     1
281
     1
  3
ACAD_XREC_ROUNDTRIP
360
90
  0
DICTIONARY
  5
8D
330
A
100
AcDbDictionary
280
     1
281
     1
  3
ACAD_XREC_ROUNDTRIP
360
8E
  0
XRECORD
  5
90
102
{ACAD_REACTORS
330
8F
102
}
330
8F
100
AcDbXrecord
280
     1
102
SHADEPLOT
 70
     0
102
SHADEPLOTRESLEVEL
 70
     2
102
SHADEPLOTCUSTOMDPI
 70
   300
  0
XRECORD
  5
8E
102
{ACAD_REACTORS
330
8D
102
}
330
8D
100
AcDbXrecord
280
     1
102
SHADEPLOT
 70
     0
102
SHADEPLOTRESLEVEL
 70
     2
102
SHADEPLOTCUSTOMDPI
 70
   300
  0
ENDSEC
  0
EOF
