  0
SECTION
  2
HEADER
  9
$ACADVER
  1
AC1009
  9
$INSBASE
 10
0.0
 20
0.0
 30
0.0
  9
$EXTMIN
 10
-71.22288548632315
 20
-2.1213203435596411
 30
0.0
  9
$EXTMAX
 10
71.222885486323122
 20
120.0000000000001
 30
0.0
  9
$LIMMIN
 10
0.0
 20
0.0
  9
$LIMMAX
 10
420.0
 20
297.0
  9
$ORTHOMODE
 70
     1
  9
$REGENMODE
 70
     1
  9
$FILLMODE
 70
     1
  9
$QTEXTMODE
 70
     0
  9
$MIRRTEXT
 70
     1
  9
$DRAGMODE
 70
     2
  9
$LTSCALE
 40
1.0
  9
$OSMODE
 70
    47
  9
$ATTMODE
 70
     1
  9
$TEXTSIZE
 40
3.5
  9
$TRACEWID
 40
1.0
  9
$TEXTSTYLE
  7
SST
  9
$CLAYER
  8
0
  9
$CELTYPE
  6
BYLAYER
  9
$CECOLOR
 62
   256
  9
$DIMSCALE
 40
2.0
  9
$DIMASZ
 40
2.0
  9
$DIMEXO
 40
1.0
  9
$DIMDLI
 40
10.0
  9
$DIMRND
 40
0.0
  9
$DIMDLE
 40
0.0
  9
$DIMEXE
 40
1.0
  9
$DIMTP
 40
0.0
  9
$DIMTM
 40
0.0
  9
$DIMTXT
 40
3.5
  9
$DIMCEN
 40
2.5
  9
$DIMTSZ
 40
0.0
  9
$DIMTOL
 70
     0
  9
$DIMLIM
 70
     0
  9
$DIMTIH
 70
     0
  9
$DIMTOH
 70
     0
  9
$DIMSE1
 70
     0
  9
$DIMSE2
 70
     0
  9
$DIMTAD
 70
     1
  9
$DIMZIN
 70
     8
  9
$DIMBLK
  1

  9
$DIMASO
 70
     1
  9
$DIMSHO
 70
     1
  9
$DIMPOST
  1

  9
$DIMAPOST
  1

  9
$DIMALT
 70
     0
  9
$DIMALTD
 70
     2
  9
$DIMALTF
 40
25.399999999999999
  9
$DIMLFAC
 40
1.0
  9
$DIMTOFL
 70
     1
  9
$DIMTVP
 40
0.0
  9
$DIMTIX
 70
     0
  9
$DIMSOXD
 70
     0
  9
$DIMSAH
 70
     0
  9
$DIMBLK1
  1

  9
$DIMBLK2
  1

  9
$DIMSTYLE
  2
STANDARD
  9
$DIMCLRD
 70
     0
  9
$DIMCLRE
 70
     0
  9
$DIMCLRT
 70
     0
  9
$DIMTFAC
 40
1.0
  9
$DIMGAP
 40
1.0
  9
$LUNITS
 70
     2
  9
$LUPREC
 70
     4
  9
$SKETCHINC
 40
1.0
  9
$FILLETRAD
 40
3.0
  9
$AUNITS
 70
     0
  9
$AUPREC
 70
     0
  9
$MENU
  1
.
  9
$ELEVATION
 40
0.0
  9
$PELEVATION
 40
0.0
  9
$THICKNESS
 40
0.0
  9
$LIMCHECK
 70
     0
  9
$BLIPMODE
 70
     0
  9
$CHAMFERA
 40
10.0
  9
$CHAMFERB
 40
10.0
  9
$SKPOLY
 70
     0
  9
$TDCREATE
 40
2453381.7687227661
  9
$TDUPDATE
 40
2453443.5636783801
  9
$TDINDWG
 40
0.2335032176
  9
$TDUSRTIMER
 40
0.2335028588
  9
$USRTIMER
 70
     1
  9
$ANGBASE
 50
0.0
  9
$ANGDIR
 70
     0
  9
$PDMODE
 70
     0
  9
$PDSIZE
 40
0.0
  9
$PLINEWID
 40
0.0
  9
$COORDS
 70
     1
  9
$SPLFRAME
 70
     0
  9
$SPLINETYPE
 70
     6
  9
$SPLINESEGS
 70
     8
  9
$ATTDIA
 70
     0
  9
$ATTREQ
 70
     1
  9
$HANDLING
 70
     1
  9
$HANDSEED
  5
BA
  9
$SURFTAB1
 70
     6
  9
$SURFTAB2
 70
     6
  9
$SURFTYPE
 70
     6
  9
$SURFU
 70
     6
  9
$SURFV
 70
     6
  9
$UCSNAME
  2

  9
$UCSORG
 10
0.0
 20
0.0
 30
0.0
  9
$UCSXDIR
 10
1.0
 20
0.0
 30
0.0
  9
$UCSYDIR
 10
0.0
 20
1.0
 30
0.0
  9
$PUCSNAME
  2

  9
$PUCSORG
 10
0.0
 20
0.0
 30
0.0
  9
$PUCSXDIR
 10
1.0
 20
0.0
 30
0.0
  9
$PUCSYDIR
 10
0.0
 20
1.0
 30
0.0
  9
$USERI1
 70
     0
  9
$USERI2
 70
     0
  9
$USERI3
 70
     0
  9
$USERI4
 70
     0
  9
$USERI5
 70
     0
  9
$USERR1
 40
0.0
  9
$USERR2
 40
0.0
  9
$USERR3
 40
0.0
  9
$USERR4
 40
0.0
  9
$USERR5
 40
0.0
  9
$WORLDVIEW
 70
     1
  9
$SHADEDGE
 70
     3
  9
$SHADEDIF
 70
    70
  9
$TILEMODE
 70
     1
  9
$MAXACTVP
 70
    64
  9
$PLIMCHECK
 70
     0
  9
$PEXTMIN
 10
2.6011809865449602
 20
2.8898569187081899
 30
0.0
  9
$PEXTMAX
 10
312.60118098654482
 20
284.88985691870829
 30
0.0
  9
$PLIMMIN
 10
-4.2333331108093262
 20
-4.2333416938781729
  9
$PLIMMAX
 10
205.7399945259094
 20
292.6926531791687
  9
$UNITMODE
 70
     0
  9
$VISRETAIN
 70
     1
  9
$PLINEGEN
 70
     0
  9
$PSLTSCALE
 70
     1
  0
ENDSEC
  0
SECTION
  2
TABLES
  0
TABLE
  2
VPORT
 70
     2
  0
VPORT
  2
*ACTIVE
 70
     0
 10
0.0
 20
0.0
 11
1.0
 21
1.0
 12
-0.0010530938579905
 22
58.938232279963351
 13
0.0
 23
0.0
 14
10.0
 24
10.0
 15
10.0
 25
10.0
 16
0.0
 26
0.0
 36
1.0
 17
0.0
 27
0.0
 37
0.0
 40
153.88348960894621
 41
1.4993646759847521
 42
50.0
 43
0.0
 44
0.0
 50
0.0
 51
0.0
 71
     0
 72
   100
 73
     1
 74
     3
 75
     0
 76
     0
 77
     0
 78
     0
  0
ENDTAB
  0
TABLE
  2
LTYPE
 70
     2
  0
LTYPE
  2
CONTINUOUS
 70
     0
  3
Solid line
 72
    65
 73
     0
 40
0.0
  0
LTYPE
  2
HIDDEN
 70
     0
  3
Hidden __ __ __ __ __ __ __ __ __ __ __ __ __ _
 72
    65
 73
     2
 40
9.5249999999999986
 49
6.3499999999999988
 49
-3.1749999999999989
  0
ENDTAB
  0
TABLE
  2
LAYER
 70
     1
  0
LAYER
  2
0
 70
     0
 62
     7
  6
CONTINUOUS
  0
ENDTAB
  0
TABLE
  2
STYLE
 70
     2
  0
STYLE
  2
STANDARD
 70
     0
 40
0.0
 41
1.0
 50
0.0
 71
     0
 42
2.5
  3
txt
  4

  0
STYLE
  2
SST
 70
     0
 40
0.0
 41
1.0
 50
0.0
 71
     0
 42
3.5
  3
romans.shx
  4

  0
ENDTAB
  0
TABLE
  2
VIEW
 70
     0
  0
ENDTAB
  0
TABLE
  2
UCS
 70
     0
  0
ENDTAB
  0
TABLE
  2
APPID
 70
     1
  0
APPID
  2
ACAD
 70
     0
  0
ENDTAB
  0
TABLE
  2
DIMSTYLE
 70
     4
  0
DIMSTYLE
  2
ISO_1-1
 70
     0
  3

  4

  5

  6

  7

 40
1.0
 41
4.0
 42
2.0
 43
8.0
 44
1.0
 45
0.0
 46
0.0
 47
0.0
 48
0.0
140
4.0
141
4.0
142
0.0
143
0.03937007874016
144
1.0
145
0.0
146
1.0
147
1.0
 71
     0
 72
     0
 73
     0
 74
     1
 75
     0
 76
     0
 77
     1
 78
     8
170
     0
171
     3
172
     1
173
     0
174
     0
175
     0
176
     0
177
     0
178
     2
  0
DIMSTYLE
  2
ISO_1-2
 70
     0
  3

  4

  5

  6

  7

 40
2.0
 41
4.0
 42
2.0
 43
8.0
 44
1.0
 45
0.0
 46
0.0
 47
0.0
 48
0.0
140
4.0
141
4.0
142
0.0
143
0.03937007874016
144
1.0
145
0.0
146
1.0
147
1.0
 71
     0
 72
     0
 73
     0
 74
     1
 75
     0
 76
     0
 77
     1
 78
     8
170
     0
171
     3
172
     1
173
     0
174
     0
175
     0
176
     0
177
     0
178
     2
  0
DIMSTYLE
  2
ISO_1-2_5
 70
     0
  3

  4

  5

  6

  7

 40
2.5
 41
4.0
 42
2.0
 43
8.0
 44
1.0
 45
0.0
 46
0.0
 47
0.0
 48
0.0
140
4.0
141
4.0
142
0.0
143
0.03937007874016
144
1.0
145
0.0
146
1.0
147
1.0
 71
     0
 72
     0
 73
     0
 74
     1
 75
     0
 76
     0
 77
     1
 78
     8
170
     0
171
     3
172
     1
173
     0
174
     0
175
     0
176
     0
177
     0
178
     2
  0
DIMSTYLE
  2
STANDARD
 70
     0
  3

  4

  5

  6

  7

 40
2.0
 41
2.0
 42
1.0
 43
10.0
 44
1.0
 45
0.0
 46
0.0
 47
0.0
 48
0.0
140
3.5
141
2.5
142
0.0
143
25.399999999999999
144
1.0
145
0.0
146
1.0
147
1.0
 71
     0
 72
     0
 73
     0
 74
     0
 75
     0
 76
     0
 77
     1
 78
     8
170
     0
171
     2
172
     1
173
     0
174
     0
175
     0
176
     0
177
     0
178
     0
  0
ENDTAB
  0
ENDSEC
  0
SECTION
  2
BLOCKS
  0
BLOCK
  8
0
  2
$MODEL_SPACE
 70
     0
 10
0.0
 20
0.0
 30
0.0
  3
$MODEL_SPACE
  1

  0
ENDBLK
  5
9
  8
0
  0
BLOCK
 67
     1
  8
0
  2
$PAPER_SPACE
 70
     0
 10
0.0
 20
0.0
 30
0.0
  3
$PAPER_SPACE
  1

  0
ENDBLK
  5
E
 67
     1
  8
0
  0
BLOCK
  8
0
  2
SIMPSON-STRONG-TIE
 70
     0
 10
0.0
 20
0.0
 30
0.0
  3
SIMPSON-STRONG-TIE
  1

  0
TEXT
  5
A4
  8
0
  6
CONTINUOUS
 10
-4.7318727780691416
 20
4.4215860385237811
 30
0.0
 40
2.0
  1
SIMPSON
 50
316.94148639091338
  7
SST
 72
     1
 11
0.0
 21
0.0
 31
0.0
  0
TEXT
  5
A5
  8
0
  6
CONTINUOUS
 10
-7.9648409725863862
 20
3.4769825481547749
 30
0.0
 40
2.0
  1
Strong-Tie
 50
316.94148639091338
  7
SST
 72
     1
 11
-2.0499999999999541
 21
-2.0499999999999541
 31
0.0
  0
ENDBLK
  5
A6
  8
0
  0
ENDSEC
  0
SECTION
  2
ENTITIES
  0
LINE
  5
30
  8
0
 10
-64.790109962948947
 20
32.899617780771791
 30
0.0
 11
-41.499999999999773
 21
16.916208982669669
 31
0.0
  0
ARC
  5
31
  8
0
  6
CONTINUOUS
 10
-57.500000000000028
 20
82.499999999999886
 30
0.0
 40
5.5
 50
291.32368626349842
 51
248.67631373650161
  0
LINE
  5
32
  8
0
 10
-42.319390421547979
 20
67.841143428624363
 30
0.0
 11
-54.500000000000021
 21
65.672970368412166
 31
0.0
  0
LINE
  5
33
  8
0
 10
-42.319390421547979
 20
57.158856571375402
 30
0.0
 11
-54.500000000000021
 21
59.3270296315876
 31
0.0
  0
CIRCLE
  5
34
  8
0
  6
CONTINUOUS
 10
-57.500000000000028
 20
42.499999999999879
 30
0.0
 40
5.5
  0
LINE
  5
35
  8
0
 10
-42.319390421547979
 20
97.158856571375395
 30
0.0
 11
-54.500000000000021
 21
99.327029631587607
 31
0.0
  0
LINE
  5
36
  8
0
 10
-42.319390421547979
 20
107.84114342862441
 30
0.0
 11
-54.500000000000021
 21
105.67297036841209
 31
0.0
  0
LINE
  5
37
  8
0
 10
-64.000000000000028
 20
119.9999999999999
 30
0.0
 11
-40.0
 21
119.9999999999999
 31
0.0
  0
LINE
  5
38
  8
0
 10
-70.000000000000028
 20
113.9999999999999
 30
0.0
 11
-70.000000000000028
 21
42.793778012497448
 31
0.0
  0
CIRCLE
  5
39
  8
0
  6
CONTINUOUS
 10
-61.000000000000028
 20
102.4999999999999
 30
0.0
 40
2.5
  0
ARC
  5
3A
  8
0
 10
-58.000000000000028
 20
42.793778012497448
 30
0.0
 40
12.0
 50
180.0
 51
235.5391837286285
  0
CIRCLE
  5
3B
  8
0
  6
CONTINUOUS
 10
-61.000000000000028
 20
62.499999999999893
 30
0.0
 40
2.5
  0
LINE
  5
3C
  8
0
 10
-64.000000000000028
 20
119.9999999999999
 30
0.0
 11
-70.000000000000028
 21
113.9999999999999
 31
0.0
  0
LINE
  5
3D
  8
0
 10
-41.500000000000071
 20
1.5
 30
0.0
 11
-41.500000000000448
 21
120.0000000000001
 31
0.0
  0
LINE
  5
3E
  8
0
 10
-40.0
 20
1.5
 30
0.0
 11
-40.0
 21
120.0000000000001
 31
0.0
  0
LINE
  5
3F
  8
0
 10
-41.5
 20
23.778954080708779
 30
0.0
 11
-40.0
 21
23.778954080708779
 31
0.0
  0
LINE
  5
40
  8
0
 10
-35.62132034355983
 20
4.8786796564404531
 30
0.0
 11
-30.50000000000006
 21
10.0
 31
0.0
  0
ARC
  5
41
  8
0
 10
-37.742640687119149
 20
7.0
 30
0.0
 40
3.0
 50
280.1943987812142
 51
315.0
  0
LINE
  5
42
  8
0
 10
-41.5
 20
16.487053466426119
 30
0.0
 11
-41.5
 21
25.710032262965459
 31
0.0
  0
ARC
  5
43
  8
0
 10
-43.715434867142022
 20
102.3580982748377
 30
0.0
 40
4.1959863374739879
 50
128.43899680579381
 51
231.56100319420619
  0
LINE
  5
44
  8
0
 10
-41.5
 20
95.859455266491636
 30
0.0
 11
-41.5
 21
109.14054473350831
 31
0.0
  0
LINE
  5
45
  8
0
 10
-41.5
 20
55.859455266491629
 30
0.0
 11
-41.5
 21
69.140544733508364
 31
0.0
  0
LINE
  5
46
  8
0
 10
-46.324000000000098
 20
65.644690627397836
 30
0.0
 11
-42.248125212655417
 21
67.877647556918987
 31
0.0
  0
LINE
  5
47
  8
0
 10
-41.50000000000022
 20
37.202772716282311
 30
0.0
 11
-40.0
 21
37.202772716282311
 31
0.0
  0
LINE
  5
48
  8
0
  6
CONTINUOUS
 10
-42.249999999999801
 20
45.250000000000107
 30
0.0
 11
-41.50000000000022
 21
45.250000000000107
 31
0.0
  0
LINE
  5
49
  8
0
  6
CONTINUOUS
 10
-42.249999999999801
 20
39.749999999999893
 30
0.0
 11
-41.50000000000022
 21
39.749999999999893
 31
0.0
  0
ARC
  5
4A
  8
0
  6
CONTINUOUS
 10
-42.249999999999801
 20
42.499999999999879
 30
0.0
 40
2.75
 50
90.0
 51
270.0
  0
ARC
  5
4B
  8
0
 10
-42.939999999999849
 20
55.859455266491629
 30
0.0
 40
1.4399999999999991
 50
0.0
 51
64.470302009463353
  0
ARC
  5
4C
  8
0
 10
-43.715434867142022
 20
62.358098274837737
 30
0.0
 40
4.1959863374739879
 50
128.43899680579381
 51
231.56100319420619
  0
LINE
  5
4D
  8
0
 10
-46.324000000000098
 20
59.071505922277652
 30
0.0
 11
-42.319390421547979
 21
57.158856571375402
 31
0.0
  0
CIRCLE
  5
4E
  8
0
  6
CONTINUOUS
 10
-51.000000000000028
 20
32.499999999999893
 30
0.0
 40
2.5
  0
CIRCLE
  5
4F
  8
0
  6
CONTINUOUS
 10
-51.000000000000028
 20
52.499999999999893
 30
0.0
 40
2.5
  0
ARC
  5
50
  8
0
  6
CONTINUOUS
 10
-42.249999999999801
 20
82.499999999999886
 30
0.0
 40
2.75
 50
90.0
 51
270.0
  0
LINE
  5
51
  8
0
 10
-42.249999999999801
 20
85.250000000000114
 30
0.0
 11
-41.500000000000448
 21
85.250000000000114
 31
0.0
  0
LINE
  5
52
  8
0
 10
-42.249999999999801
 20
79.749999999999886
 30
0.0
 11
-41.500000000000448
 21
79.749999999999886
 31
0.0
  0
ARC
  5
53
  8
0
 10
-42.939999999999849
 20
69.140544733508364
 30
0.0
 40
1.4399999999999991
 50
298.71601164125752
 51
0.0
  0
CIRCLE
  5
54
  8
0
  6
CONTINUOUS
 10
-51.000000000000028
 20
72.499999999999886
 30
0.0
 40
2.5
  0
ARC
  5
55
  8
0
 10
-42.939999999999849
 20
95.859455266491636
 30
0.0
 40
1.4399999999999991
 50
0.0
 51
64.470302009463353
  0
LINE
  5
56
  8
0
 10
-46.324000000000098
 20
99.071505922277652
 30
0.0
 11
-42.319390421547979
 21
97.158856571375395
 31
0.0
  0
CIRCLE
  5
57
  8
0
  6
CONTINUOUS
 10
-51.000000000000028
 20
92.499999999999886
 30
0.0
 40
2.5
  0
LINE
  5
58
  8
0
 10
-41.500000000000448
 20
113.9999999999999
 30
0.0
 11
-40.0
 21
113.9999999999999
 31
0.0
  0
ARC
  5
59
  8
0
 10
-42.939999999999849
 20
109.14054473350831
 30
0.0
 40
1.4399999999999991
 50
298.71601164125752
 51
0.0
  0
LINE
  5
5A
  8
0
 10
-46.324000000000098
 20
105.64469062739779
 30
0.0
 11
-42.248125212655417
 21
107.877647556919
 31
0.0
  0
CIRCLE
  5
5B
  8
0
  6
CONTINUOUS
 10
-51.000000000000028
 20
112.4999999999999
 30
0.0
 40
2.5
  0
LINE
  5
5C
  8
0
 10
-30.50000000000006
 20
10.0
 30
0.0
 11
0.5
 21
10.0
 31
0.0
  0
LINE
  5
5D
  8
0
 10
-38.5
 20
0.0
 30
0.0
 11
38.5
 21
0.0
 31
0.0
  0
LINE
  5
5E
  8
0
 10
-38.500000000000057
 20
-1.5
 30
0.0
 11
38.500000000000057
 21
-1.500000000000028
 31
0.0
  0
CIRCLE
  5
5F
  8
0
  6
CONTINUOUS
 10
51.0
 20
72.499999999999886
 30
0.0
 40
2.5
  0
LINE
  5
60
  8
0
 10
70.0
 20
113.9999999999999
 30
0.0
 11
70.0
 21
42.793778012497448
 31
0.0
  0
LINE
  5
61
  8
0
 10
41.50000000000005
 20
1.5
 30
0.0
 11
41.500000000000448
 21
120.0000000000001
 31
0.0
  0
LINE
  5
62
  8
0
 10
40.0
 20
1.5
 30
0.0
 11
40.0
 21
120.0000000000001
 31
0.0
  0
ARC
  5
63
  8
0
  6
CONTINUOUS
 10
42.249999999999773
 20
42.499999999999879
 30
0.0
 40
2.75
 50
270.0
 51
90.0
  0
LINE
  5
64
  8
0
 10
42.319390421547944
 20
57.158856571375402
 30
0.0
 11
54.5
 21
59.3270296315876
 31
0.0
  0
LINE
  5
65
  8
0
 10
42.319390421547944
 20
67.841143428624363
 30
0.0
 11
54.5
 21
65.672970368412166
 31
0.0
  0
LINE
  5
66
  8
0
 10
64.790109962948918
 20
32.899617780771791
 30
0.0
 11
41.499999999999773
 21
16.916208982669669
 31
0.0
  0
LINE
  5
67
  8
0
 10
46.324000000000062
 20
59.071505922277652
 30
0.0
 11
42.319390421547944
 21
57.158856571375402
 31
0.0
  0
LINE
  5
68
  8
0
 10
46.324000000000062
 20
65.644690627397836
 30
0.0
 11
42.248125212655403
 21
67.877647556918987
 31
0.0
  0
CIRCLE
  5
69
  8
0
  6
CONTINUOUS
 10
57.5
 20
42.499999999999879
 30
0.0
 40
5.5
  0
ARC
  5
6A
  8
0
 10
58.0
 20
42.793778012497448
 30
0.0
 40
12.0
 50
304.46081627137153
 51
0.000000000000007
  0
CIRCLE
  5
6B
  8
0
  6
CONTINUOUS
 10
51.0
 20
32.499999999999893
 30
0.0
 40
2.5
  0
CIRCLE
  5
6C
  8
0
  6
CONTINUOUS
 10
61.0
 20
62.499999999999893
 30
0.0
 40
2.5
  0
CIRCLE
  5
6D
  8
0
  6
CONTINUOUS
 10
51.0
 20
52.499999999999893
 30
0.0
 40
2.5
  0
ARC
  5
6E
  8
0
 10
43.715434867141987
 20
62.358098274837737
 30
0.0
 40
4.1959863374739879
 50
308.43899680579381
 51
51.561003194206137
  0
LINE
  5
6F
  8
0
 10
41.5
 20
16.487053466426119
 30
0.0
 11
41.5
 21
25.710032262965459
 31
0.0
  0
LINE
  5
70
  8
0
 10
41.5
 20
23.778954080708779
 30
0.0
 11
40.0
 21
23.778954080708779
 31
0.0
  0
LINE
  5
71
  8
0
  6
CONTINUOUS
 10
42.249999999999773
 20
39.749999999999893
 30
0.0
 11
41.50000000000022
 21
39.749999999999893
 31
0.0
  0
LINE
  5
72
  8
0
 10
41.50000000000022
 20
37.202772716282311
 30
0.0
 11
40.0
 21
37.202772716282311
 31
0.0
  0
LINE
  5
73
  8
0
 10
41.5
 20
55.859455266491629
 30
0.0
 11
41.5
 21
69.140544733508364
 31
0.0
  0
LINE
  5
74
  8
0
  6
CONTINUOUS
 10
42.249999999999773
 20
45.250000000000107
 30
0.0
 11
41.50000000000022
 21
45.250000000000107
 31
0.0
  0
ARC
  5
75
  8
0
 10
42.93999999999982
 20
55.859455266491629
 30
0.0
 40
1.4399999999999991
 50
115.5296979905366
 51
180.0
  0
ARC
  5
76
  8
0
 10
42.93999999999982
 20
69.140544733508364
 30
0.0
 40
1.4399999999999991
 50
180.0
 51
241.2839883587425
  0
ARC
  5
77
  8
0
  6
CONTINUOUS
 10
42.249999999999773
 20
82.499999999999886
 30
0.0
 40
2.75
 50
270.0
 51
90.0
  0
LINE
  5
78
  8
0
 10
64.0
 20
119.9999999999999
 30
0.0
 11
40.0
 21
119.9999999999999
 31
0.0
  0
LINE
  5
79
  8
0
 10
42.319390421547944
 20
107.84114342862441
 30
0.0
 11
54.5
 21
105.67297036841209
 31
0.0
  0
LINE
  5
7A
  8
0
 10
42.319390421547944
 20
97.158856571375395
 30
0.0
 11
54.5
 21
99.327029631587607
 31
0.0
  0
LINE
  5
7B
  8
0
 10
46.324000000000062
 20
99.071505922277652
 30
0.0
 11
42.319390421547944
 21
97.158856571375395
 31
0.0
  0
LINE
  5
7C
  8
0
 10
46.324000000000062
 20
105.64469062739779
 30
0.0
 11
42.248125212655403
 21
107.877647556919
 31
0.0
  0
CIRCLE
  5
7D
  8
0
  6
CONTINUOUS
 10
61.0
 20
102.4999999999999
 30
0.0
 40
2.5
  0
ARC
  5
7E
  8
0
 10
43.715434867141987
 20
102.3580982748377
 30
0.0
 40
4.1959863374739879
 50
308.43899680579381
 51
51.561003194206137
  0
ARC
  5
7F
  8
0
  6
CONTINUOUS
 10
57.5
 20
82.499999999999886
 30
0.0
 40
5.5
 50
291.32368626349842
 51
248.67631373650161
  0
CIRCLE
  5
80
  8
0
  6
CONTINUOUS
 10
51.0
 20
92.499999999999886
 30
0.0
 40
2.5
  0
LINE
  5
81
  8
0
 10
64.0
 20
119.9999999999999
 30
0.0
 11
70.0
 21
113.9999999999999
 31
0.0
  0
CIRCLE
  5
82
  8
0
  6
CONTINUOUS
 10
51.0
 20
112.4999999999999
 30
0.0
 40
2.5
  0
LINE
  5
83
  8
0
 10
41.5
 20
95.859455266491636
 30
0.0
 11
41.5
 21
109.14054473350831
 31
0.0
  0
LINE
  5
84
  8
0
 10
42.249999999999773
 20
79.749999999999886
 30
0.0
 11
41.500000000000448
 21
79.749999999999886
 31
0.0
  0
LINE
  5
85
  8
0
 10
42.249999999999773
 20
85.250000000000114
 30
0.0
 11
41.500000000000448
 21
85.250000000000114
 31
0.0
  0
ARC
  5
86
  8
0
 10
42.93999999999982
 20
95.859455266491636
 30
0.0
 40
1.4399999999999991
 50
115.5296979905366
 51
180.0
  0
ARC
  5
87
  8
0
 10
42.93999999999982
 20
109.14054473350831
 30
0.0
 40
1.4399999999999991
 50
180.0
 51
241.2839883587425
  0
LINE
  5
88
  8
0
 10
41.500000000000448
 20
113.9999999999999
 30
0.0
 11
40.0
 21
113.9999999999999
 31
0.0
  0
ARC
  5
89
  8
0
 10
-38.500000000000057
 20
1.5
 30
0.0
 40
3.0
 50
180.0000000000002
 51
270.0
  0
ARC
  5
8A
  8
0
 10
38.500000000000057
 20
1.5
 30
0.0
 40
3.0
 50
270.0
 51
359.99999999999977
  0
ARC
  5
8B
  8
0
 10
-38.5
 20
1.5
 30
0.0
 40
1.5
 50
180.0
 51
270.0
  0
ARC
  5
8C
  8
0
 10
38.5
 20
1.5
 30
0.0
 40
1.5
 50
270.0
 51
0.0
  0
ARC
  5
8D
  8
0
 10
-40.0
 20
4.0
 30
0.0
 40
2.0
 50
25.376933525151969
 51
90.0
  0
ARC
  5
8E
  8
0
 10
-36.837722339831657
 20
5.5
 30
0.0
 40
1.5
 50
205.3769335251522
 51
255.5637969607892
  0
LINE
  5
8F
  8
0
 10
30.5
 20
10.000000000000281
 30
0.0
 11
-0.500000000000057
 21
10.0
 31
0.0
  0
LINE
  5
90
  8
0
 10
35.62132034355983
 20
4.8786796564407382
 30
0.0
 11
30.5
 21
10.000000000000281
 31
0.0
  0
ARC
  5
91
  8
0
 10
37.742640687119099
 20
7.0000000000003411
 30
0.0
 40
3.0
 50
225.00000000000051
 51
259.80560121878631
  0
ARC
  5
92
  8
0
 10
36.8377223398316
 20
5.5000000000002842
 30
0.0
 40
1.5
 50
284.43620303921131
 51
334.62306647484832
  0
ARC
  5
93
  8
0
 10
40.0
 20
4.0000000000003411
 30
0.0
 40
2.0
 50
90.000000000000469
 51
154.62306647484851
  0
LINE
  5
94
  8
0
 10
-55.500000000000028
 20
76.999999999999886
 30
0.0
 11
-59.500000000000021
 21
76.999999999999886
 31
0.0
  0
LINE
  5
95
  8
0
  6
HIDDEN
 62
     8
 10
-55.500000000000028
 20
75.499999999999886
 30
0.0
 11
-55.500000000000028
 21
76.999999999999886
 31
0.0
  0
LINE
  5
97
  8
0
  6
HIDDEN
 62
     8
 10
-55.500000000000028
 20
75.499999999999886
 30
0.0
 11
-59.500000000000021
 21
75.499999999999886
 31
0.0
  0
LINE
  5
98
  8
0
  6
HIDDEN
 62
     8
 10
-59.500000000000021
 20
75.499999999999886
 30
0.0
 11
-59.500000000000021
 21
76.999999999999886
 31
0.0
  0
LINE
  5
99
  8
0
 10
-55.500000000000028
 20
76.999999999999886
 30
0.0
 11
-55.499999999999979
 21
77.376524617020095
 31
0.0
  0
LINE
  5
9A
  8
0
 10
-59.500000000000021
 20
76.999999999999886
 30
0.0
 11
-59.500000000000057
 21
77.376524617020095
 31
0.0
  0
LINE
  5
9B
  8
0
 10
59.5
 20
76.999999999999886
 30
0.0
 11
55.5
 21
76.999999999999886
 31
0.0
  0
LINE
  5
9C
  8
0
  6
HIDDEN
 62
     8
 10
59.5
 20
75.499999999999886
 30
0.0
 11
59.5
 21
76.999999999999886
 31
0.0
  0
LINE
  5
9D
  8
0
  6
HIDDEN
 62
     8
 10
59.5
 20
75.499999999999886
 30
0.0
 11
55.5
 21
75.499999999999886
 31
0.0
  0
LINE
  5
9E
  8
0
  6
HIDDEN
 62
     8
 10
55.5
 20
75.499999999999886
 30
0.0
 11
55.5
 21
76.999999999999886
 31
0.0
  0
LINE
  5
9F
  8
0
 10
59.5
 20
76.999999999999886
 30
0.0
 11
59.500000000000043
 21
77.376524617020095
 31
0.0
  0
LINE
  5
A0
  8
0
 10
55.5
 20
76.999999999999886
 30
0.0
 11
55.499999999999957
 21
77.376524617020095
 31
0.0
  0
INSERT
  5
A1
  8
0
  2
SIMPSON-STRONG-TIE
 10
61.554063793189471
 20
92.960410992909033
 30
0.0
  0
ENDSEC
  0
EOF
