  0
SECTION
  2
HEADER
  9
$ACADVER
  1
AC1009
  9
$INSBASE
 10
0.0
 20
0.0
 30
0.0
  9
$EXTMIN
 10
-61.222885486323051
 20
-2.1213203435599821
 30
0.0
  9
$EXTMAX
 10
61.22288548632315
 20
99.999999999999687
 30
0.0
  9
$LIMMIN
 10
0.0
 20
0.0
  9
$LIMMAX
 10
420.0
 20
297.0
  9
$ORTHOMODE
 70
     1
  9
$REGENMODE
 70
     1
  9
$FILLMODE
 70
     1
  9
$QTEXTMODE
 70
     0
  9
$MIRRTEXT
 70
     1
  9
$DRAGMODE
 70
     2
  9
$LTSCALE
 40
1.0
  9
$OSMODE
 70
    47
  9
$ATTMODE
 70
     1
  9
$TEXTSIZE
 40
3.5
  9
$TRACEWID
 40
1.0
  9
$TEXTSTYLE
  7
SST
  9
$CLAYER
  8
0
  9
$CELTYPE
  6
BYLAYER
  9
$CECOLOR
 62
   256
  9
$DIMSCALE
 40
2.0
  9
$DIMASZ
 40
2.0
  9
$DIMEXO
 40
1.0
  9
$DIMDLI
 40
10.0
  9
$DIMRND
 40
0.0
  9
$DIMDLE
 40
0.0
  9
$DIMEXE
 40
1.0
  9
$DIMTP
 40
0.0
  9
$DIMTM
 40
0.0
  9
$DIMTXT
 40
3.5
  9
$DIMCEN
 40
2.5
  9
$DIMTSZ
 40
0.0
  9
$DIMTOL
 70
     0
  9
$DIMLIM
 70
     0
  9
$DIMTIH
 70
     0
  9
$DIMTOH
 70
     0
  9
$DIMSE1
 70
     0
  9
$DIMSE2
 70
     0
  9
$DIMTAD
 70
     1
  9
$DIMZIN
 70
     8
  9
$DIMBLK
  1

  9
$DIMASO
 70
     1
  9
$DIMSHO
 70
     1
  9
$DIMPOST
  1

  9
$DIMAPOST
  1

  9
$DIMALT
 70
     0
  9
$DIMALTD
 70
     2
  9
$DIMALTF
 40
25.399999999999999
  9
$DIMLFAC
 40
1.0
  9
$DIMTOFL
 70
     1
  9
$DIMTVP
 40
0.0
  9
$DIMTIX
 70
     0
  9
$DIMSOXD
 70
     0
  9
$DIMSAH
 70
     0
  9
$DIMBLK1
  1

  9
$DIMBLK2
  1

  9
$DIMSTYLE
  2
STANDARD
  9
$DIMCLRD
 70
     0
  9
$DIMCLRE
 70
     0
  9
$DIMCLRT
 70
     0
  9
$DIMTFAC
 40
1.0
  9
$DIMGAP
 40
1.0
  9
$LUNITS
 70
     2
  9
$LUPREC
 70
     4
  9
$SKETCHINC
 40
1.0
  9
$FILLETRAD
 40
3.0
  9
$AUNITS
 70
     0
  9
$AUPREC
 70
     0
  9
$MENU
  1
.
  9
$ELEVATION
 40
0.0
  9
$PELEVATION
 40
0.0
  9
$THICKNESS
 40
0.0
  9
$LIMCHECK
 70
     0
  9
$BLIPMODE
 70
     0
  9
$CHAMFERA
 40
10.0
  9
$CHAMFERB
 40
10.0
  9
$SKPOLY
 70
     0
  9
$TDCREATE
 40
2453381.7687227661
  9
$TDUPDATE
 40
2453443.5633573839
  9
$TDINDWG
 40
0.614912037
  9
$TDUSRTIMER
 40
0.6149116782
  9
$USRTIMER
 70
     1
  9
$ANGBASE
 50
0.0
  9
$ANGDIR
 70
     0
  9
$PDMODE
 70
     0
  9
$PDSIZE
 40
0.0
  9
$PLINEWID
 40
0.0
  9
$COORDS
 70
     1
  9
$SPLFRAME
 70
     0
  9
$SPLINETYPE
 70
     6
  9
$SPLINESEGS
 70
     8
  9
$ATTDIA
 70
     0
  9
$ATTREQ
 70
     1
  9
$HANDLING
 70
     1
  9
$HANDSEED
  5
B5
  9
$SURFTAB1
 70
     6
  9
$SURFTAB2
 70
     6
  9
$SURFTYPE
 70
     6
  9
$SURFU
 70
     6
  9
$SURFV
 70
     6
  9
$UCSNAME
  2

  9
$UCSORG
 10
0.0
 20
0.0
 30
0.0
  9
$UCSXDIR
 10
1.0
 20
0.0
 30
0.0
  9
$UCSYDIR
 10
0.0
 20
1.0
 30
0.0
  9
$PUCSNAME
  2

  9
$PUCSORG
 10
0.0
 20
0.0
 30
0.0
  9
$PUCSXDIR
 10
1.0
 20
0.0
 30
0.0
  9
$PUCSYDIR
 10
0.0
 20
1.0
 30
0.0
  9
$USERI1
 70
     0
  9
$USERI2
 70
     0
  9
$USERI3
 70
     0
  9
$USERI4
 70
     0
  9
$USERI5
 70
     0
  9
$USERR1
 40
0.0
  9
$USERR2
 40
0.0
  9
$USERR3
 40
0.0
  9
$USERR4
 40
0.0
  9
$USERR5
 40
0.0
  9
$WORLDVIEW
 70
     1
  9
$SHADEDGE
 70
     3
  9
$SHADEDIF
 70
    70
  9
$TILEMODE
 70
     1
  9
$MAXACTVP
 70
    64
  9
$PLIMCHECK
 70
     0
  9
$PEXTMIN
 10
2.6011809865449602
 20
2.8898569187081899
 30
0.0
  9
$PEXTMAX
 10
312.60118098654482
 20
284.88985691870829
 30
0.0
  9
$PLIMMIN
 10
-4.2333331108093262
 20
-4.2333416938781729
  9
$PLIMMAX
 10
205.7399945259094
 20
292.6926531791687
  9
$UNITMODE
 70
     0
  9
$VISRETAIN
 70
     1
  9
$PLINEGEN
 70
     0
  9
$PSLTSCALE
 70
     1
  0
ENDSEC
  0
SECTION
  2
TABLES
  0
TABLE
  2
VPORT
 70
     2
  0
VPORT
  2
*ACTIVE
 70
     0
 10
0.0
 20
0.0
 11
1.0
 21
1.0
 12
4.860388052278239
 22
43.865323267311616
 13
0.0
 23
0.0
 14
10.0
 24
10.0
 15
10.0
 25
10.0
 16
0.0
 26
0.0
 36
1.0
 17
0.0
 27
0.0
 37
0.0
 40
225.47737561383909
 41
1.4993646759847521
 42
50.0
 43
0.0
 44
0.0
 50
0.0
 51
0.0
 71
     0
 72
   100
 73
     1
 74
     3
 75
     0
 76
     0
 77
     0
 78
     0
  0
ENDTAB
  0
TABLE
  2
LTYPE
 70
     2
  0
LTYPE
  2
CONTINUOUS
 70
     0
  3
Solid line
 72
    65
 73
     0
 40
0.0
  0
LTYPE
  2
HIDDEN
 70
     0
  3
Hidden __ __ __ __ __ __ __ __ __ __ __ __ __ _
 72
    65
 73
     2
 40
9.5249999999999986
 49
6.3499999999999988
 49
-3.1749999999999989
  0
ENDTAB
  0
TABLE
  2
LAYER
 70
     1
  0
LAYER
  2
0
 70
     0
 62
     7
  6
CONTINUOUS
  0
ENDTAB
  0
TABLE
  2
STYLE
 70
     2
  0
STYLE
  2
STANDARD
 70
     0
 40
0.0
 41
1.0
 50
0.0
 71
     0
 42
2.5
  3
txt
  4

  0
STYLE
  2
SST
 70
     0
 40
0.0
 41
1.0
 50
0.0
 71
     0
 42
3.5
  3
romans.shx
  4

  0
ENDTAB
  0
TABLE
  2
VIEW
 70
     0
  0
ENDTAB
  0
TABLE
  2
UCS
 70
     0
  0
ENDTAB
  0
TABLE
  2
APPID
 70
     1
  0
APPID
  2
ACAD
 70
     0
  0
ENDTAB
  0
TABLE
  2
DIMSTYLE
 70
     4
  0
DIMSTYLE
  2
ISO_1-1
 70
     0
  3

  4

  5

  6

  7

 40
1.0
 41
4.0
 42
2.0
 43
8.0
 44
1.0
 45
0.0
 46
0.0
 47
0.0
 48
0.0
140
4.0
141
4.0
142
0.0
143
0.03937007874016
144
1.0
145
0.0
146
1.0
147
1.0
 71
     0
 72
     0
 73
     0
 74
     1
 75
     0
 76
     0
 77
     1
 78
     8
170
     0
171
     3
172
     1
173
     0
174
     0
175
     0
176
     0
177
     0
178
     2
  0
DIMSTYLE
  2
ISO_1-2
 70
     0
  3

  4

  5

  6

  7

 40
2.0
 41
4.0
 42
2.0
 43
8.0
 44
1.0
 45
0.0
 46
0.0
 47
0.0
 48
0.0
140
4.0
141
4.0
142
0.0
143
0.03937007874016
144
1.0
145
0.0
146
1.0
147
1.0
 71
     0
 72
     0
 73
     0
 74
     1
 75
     0
 76
     0
 77
     1
 78
     8
170
     0
171
     3
172
     1
173
     0
174
     0
175
     0
176
     0
177
     0
178
     2
  0
DIMSTYLE
  2
ISO_1-2_5
 70
     0
  3

  4

  5

  6

  7

 40
2.5
 41
4.0
 42
2.0
 43
8.0
 44
1.0
 45
0.0
 46
0.0
 47
0.0
 48
0.0
140
4.0
141
4.0
142
0.0
143
0.03937007874016
144
1.0
145
0.0
146
1.0
147
1.0
 71
     0
 72
     0
 73
     0
 74
     1
 75
     0
 76
     0
 77
     1
 78
     8
170
     0
171
     3
172
     1
173
     0
174
     0
175
     0
176
     0
177
     0
178
     2
  0
DIMSTYLE
  2
STANDARD
 70
     0
  3

  4

  5

  6

  7

 40
2.0
 41
2.0
 42
1.0
 43
10.0
 44
1.0
 45
0.0
 46
0.0
 47
0.0
 48
0.0
140
3.5
141
2.5
142
0.0
143
25.399999999999999
144
1.0
145
0.0
146
1.0
147
1.0
 71
     0
 72
     0
 73
     0
 74
     0
 75
     0
 76
     0
 77
     1
 78
     8
170
     0
171
     2
172
     1
173
     0
174
     0
175
     0
176
     0
177
     0
178
     0
  0
ENDTAB
  0
ENDSEC
  0
SECTION
  2
BLOCKS
  0
BLOCK
  8
0
  2
$MODEL_SPACE
 70
     0
 10
0.0
 20
0.0
 30
0.0
  3
$MODEL_SPACE
  1

  0
ENDBLK
  5
9
  8
0
  0
BLOCK
 67
     1
  8
0
  2
$PAPER_SPACE
 70
     0
 10
0.0
 20
0.0
 30
0.0
  3
$PAPER_SPACE
  1

  0
ENDBLK
  5
E
 67
     1
  8
0
  0
BLOCK
  8
0
  2
SIMPSON-STRONG-TIE
 70
     0
 10
0.0
 20
0.0
 30
0.0
  3
SIMPSON-STRONG-TIE
  1

  0
TEXT
  5
9F
  8
0
  6
CONTINUOUS
 10
-4.7318727780691416
 20
4.4215860385237811
 30
0.0
 40
2.0
  1
SIMPSON
 50
316.94148639091338
  7
SST
 72
     1
 11
0.0
 21
0.0
 31
0.0
  0
TEXT
  5
A0
  8
0
  6
CONTINUOUS
 10
-7.9648409725863862
 20
3.4769825481547749
 30
0.0
 40
2.0
  1
Strong-Tie
 50
316.94148639091338
  7
SST
 72
     1
 11
-2.0499999999999541
 21
-2.0499999999999541
 31
0.0
  0
ENDBLK
  5
A1
  8
0
  0
ENDSEC
  0
SECTION
  2
ENTITIES
  0
LINE
  5
30
  8
0
 10
17.906066017177629
 20
6.3439339828216239
 30
0.0
 11
14.249999999999771
 21
9.9999999999999432
 31
0.0
  0
LINE
  5
31
  8
0
 10
-17.906066017177629
 20
6.3439339828216239
 30
0.0
 11
-14.249999999999771
 21
9.9999999999999432
 31
0.0
  0
LINE
  5
32
  8
0
 10
14.249999999999771
 20
9.9999999999997158
 30
0.0
 11
14.25
 21
9.9999999999997158
 31
0.0
  0
LINE
  5
33
  8
0
 10
29.67826872164693
 20
0.5717312783523881
 30
0.0
 11
23.993933982822231
 21
6.2560660171779432
 31
0.0
  0
LINE
  5
34
  8
0
 10
-23.887867965644318
 20
6.2999999999996703
 30
0.0
 11
-18.012132034355538
 21
6.2999999999996703
 31
0.0
  0
ARC
  5
35
  8
0
 10
-28.312132034355731
 20
0.1499999999995794
 30
0.0
 40
0.15
 50
270.0
 51
314.99999999999079
  0
ARC
  5
36
  8
0
 10
-23.887867965644318
 20
6.1499999999998058
 30
0.0
 40
0.15
 50
89.999999999999986
 51
135.00000000000921
  0
LINE
  5
37
  8
0
 10
-29.67826872164688
 20
0.5717312783524733
 30
0.0
 11
-23.993933982822231
 21
6.2560660171779432
 31
0.0
  0
LINE
  5
38
  8
0
 10
-28.49999999999994
 20
-0.0000000000003126
 30
0.0
 11
0.0
 21
0.0
 31
0.0
  0
ARC
  5
39
  8
0
 10
-18.012132034355538
 20
6.4499999999997613
 30
0.0
 40
0.15
 50
270.0
 51
315.00000000000921
  0
LINE
  5
3A
  8
0
 10
23.887867965644318
 20
6.2999999999996703
 30
0.0
 11
18.012132034355538
 21
6.2999999999996703
 31
0.0
  0
ARC
  5
3B
  8
0
 10
23.887867965644318
 20
6.1499999999998058
 30
0.0
 40
0.15
 50
44.999999999990777
 51
89.999999999999986
  0
ARC
  5
3C
  8
0
 10
18.012132034355538
 20
6.4499999999997613
 30
0.0
 40
0.15
 50
224.99999999999079
 51
270.0
  0
ARC
  5
3D
  8
0
 10
25.312132034355731
 20
0.1499999999995509
 30
0.0
 40
0.15
 50
225.00000000000921
 51
270.0
  0
LINE
  5
3E
  8
0
 10
28.50000000000006
 20
-0.0000000000002842
 30
0.0
 11
0.0
 21
0.0
 31
0.0
  0
LINE
  5
3F
  8
0
 10
-53.99999999999995
 20
99.999999999999687
 30
0.0
 11
-29.99999999999995
 21
99.999999999999687
 31
0.0
  0
ARC
  5
40
  8
0
 10
-47.499999999999488
 20
62.49999999999968
 30
0.0
 40
5.5
 50
291.32368626350558
 51
248.67631373649439
  0
LINE
  5
41
  8
0
 10
-54.790109962948861
 20
26.233408798101809
 30
0.0
 11
-31.49999999999995
 21
10.249999999999689
 31
0.0
  0
ARC
  5
42
  8
0
 10
-47.999999999999943
 20
36.127569029827697
 30
0.0
 40
12.0
 50
180.0
 51
235.53918372862799
  0
LINE
  5
43
  8
0
 10
-59.999999999999943
 20
93.999999999999673
 30
0.0
 11
-59.999999999999943
 21
36.127569029827697
 31
0.0
  0
CIRCLE
  5
44
  8
0
 10
-50.999999999999488
 20
42.49999999999968
 30
0.0
 40
2.5
  0
CIRCLE
  5
45
  8
0
 10
-50.999999999999488
 20
82.499999999999687
 30
0.0
 40
2.5
  0
LINE
  5
46
  8
0
 10
-53.99999999999995
 20
99.999999999999687
 30
0.0
 11
-59.999999999999943
 21
93.999999999999673
 31
0.0
  0
CIRCLE
  5
47
  8
0
 10
-40.999999999999488
 20
32.499999999999687
 30
0.0
 40
2.5
  0
CIRCLE
  5
48
  8
0
 10
-40.999999999999488
 20
32.499999999999687
 30
0.0
 40
2.5
  0
LINE
  5
49
  8
0
 10
-31.49999999999995
 20
1.4999999999996581
 30
0.0
 11
-31.500000000000401
 21
99.999999999999687
 31
0.0
  0
LINE
  5
4A
  8
0
 10
-31.49999999999995
 20
29.850289223808581
 30
0.0
 11
-29.99999999999995
 21
29.850289223808581
 31
0.0
  0
LINE
  5
4B
  8
0
 10
-31.49999999999995
 20
17.112745098039031
 30
0.0
 11
-29.99999999999995
 21
17.112745098039031
 31
0.0
  0
ARC
  5
4C
  8
0
 10
-32.249999999999488
 20
62.49999999999968
 30
0.0
 40
2.75
 50
90.0
 51
270.0
  0
LINE
  5
4D
  8
0
 10
-32.249999999999943
 20
65.249999999999687
 30
0.0
 11
-31.500000000000401
 21
65.249999999999687
 31
0.0
  0
LINE
  5
4E
  8
0
 10
-32.249999999999943
 20
59.749999999999687
 30
0.0
 11
-31.500000000000401
 21
59.749999999999687
 31
0.0
  0
ARC
  5
4F
  8
0
 10
-32.939999999999543
 20
49.140544733507937
 30
0.0
 40
1.4399999999999991
 50
298.71601164125752
 51
0.0
  0
ARC
  5
50
  8
0
 10
-32.939999999999543
 20
35.859455266491437
 30
0.0
 40
1.4399999999999991
 50
0.0
 51
64.470302009456432
  0
LINE
  5
51
  8
0
 10
-31.49999999999995
 20
35.859455266491437
 30
0.0
 11
-31.49999999999995
 21
49.140544733507937
 31
0.0
  0
ARC
  5
52
  8
0
 10
-33.715434867141482
 20
42.358098274837772
 30
0.0
 40
4.1959863374739879
 50
128.4389968057867
 51
231.5610031942133
  0
LINE
  5
53
  8
0
 10
-36.324000000000012
 20
45.644690627397409
 30
0.0
 11
-32.248125212655339
 21
47.877647556919023
 31
0.0
  0
LINE
  5
54
  8
0
 10
-36.324000000000012
 20
39.07150592227768
 30
0.0
 11
-32.319390421548121
 21
37.158856571375203
 31
0.0
  0
LINE
  5
55
  8
0
 10
-32.319390421548121
 20
47.841143428624179
 30
0.0
 11
-44.499999999999943
 21
45.67297036841196
 31
0.0
  0
LINE
  5
56
  8
0
 10
-32.319390421548121
 20
37.158856571375203
 30
0.0
 11
-44.499999999999943
 21
39.327029631587408
 31
0.0
  0
CIRCLE
  5
57
  8
0
 10
-40.999999999999488
 20
52.49999999999968
 30
0.0
 40
2.5
  0
LINE
  5
58
  8
0
 10
-31.500000000000401
 20
93.999999999999673
 30
0.0
 11
-29.99999999999995
 21
93.999999999999673
 31
0.0
  0
ARC
  5
59
  8
0
 10
-32.939999999999543
 20
89.140544733507923
 30
0.0
 40
1.4399999999999991
 50
298.71601164125752
 51
0.0
  0
ARC
  5
5A
  8
0
 10
-32.939999999999543
 20
75.859455266491437
 30
0.0
 40
1.4399999999999991
 50
0.0
 51
64.470302009456432
  0
ARC
  5
5B
  8
0
 10
-33.715434867141482
 20
82.358098274837772
 30
0.0
 40
4.1959863374739879
 50
128.4389968057867
 51
231.5610031942133
  0
LINE
  5
5C
  8
0
 10
-36.324000000000012
 20
79.07150592227768
 30
0.0
 11
-32.319390421548121
 21
77.158856571375196
 31
0.0
  0
LINE
  5
5D
  8
0
 10
-31.49999999999995
 20
75.859455266491437
 30
0.0
 11
-31.49999999999995
 21
89.140544733507923
 31
0.0
  0
LINE
  5
5E
  8
0
 10
-36.324000000000012
 20
85.644690627397409
 30
0.0
 11
-32.248125212655339
 21
87.877647556919015
 31
0.0
  0
LINE
  5
5F
  8
0
 10
-32.319390421548121
 20
77.158856571375196
 30
0.0
 11
-44.499999999999943
 21
79.327029631587408
 31
0.0
  0
LINE
  5
60
  8
0
 10
-32.319390421548121
 20
87.841143428624179
 30
0.0
 11
-44.499999999999943
 21
85.672970368411967
 31
0.0
  0
CIRCLE
  5
61
  8
0
 10
-40.999999999999488
 20
92.499999999999687
 30
0.0
 40
2.5
  0
CIRCLE
  5
62
  8
0
 10
-40.999999999999488
 20
72.499999999999673
 30
0.0
 40
2.5
  0
LINE
  5
63
  8
0
 10
31.5
 20
1.4999999999996581
 30
0.0
 11
31.500000000000512
 21
99.999999999999687
 31
0.0
  0
LINE
  5
64
  8
0
 10
60.000000000000057
 20
93.999999999999673
 30
0.0
 11
60.000000000000057
 21
36.127569029827697
 31
0.0
  0
ARC
  5
65
  8
0
 10
48.000000000000057
 20
36.127569029827697
 30
0.0
 40
12.0
 50
304.46081627137198
 51
0.000000000000007
  0
LINE
  5
66
  8
0
 10
31.50000000000006
 20
35.859455266491437
 30
0.0
 11
31.50000000000006
 21
49.140544733507937
 31
0.0
  0
LINE
  5
67
  8
0
 10
32.319390421548242
 20
37.158856571375203
 30
0.0
 11
44.50000000000005
 21
39.327029631587408
 31
0.0
  0
LINE
  5
68
  8
0
 10
36.324000000000133
 20
39.07150592227768
 30
0.0
 11
32.319390421548242
 21
37.158856571375203
 31
0.0
  0
LINE
  5
69
  8
0
 10
54.790109962948968
 20
26.233408798101809
 30
0.0
 11
31.50000000000006
 21
10.249999999999689
 31
0.0
  0
CIRCLE
  5
6A
  8
0
 10
40.999999999999602
 20
32.499999999999687
 30
0.0
 40
2.5
  0
CIRCLE
  5
6B
  8
0
 10
40.999999999999602
 20
32.499999999999687
 30
0.0
 40
2.5
  0
LINE
  5
6C
  8
0
 10
31.50000000000006
 20
17.112745098039031
 30
0.0
 11
30.00000000000006
 21
17.112745098039031
 31
0.0
  0
LINE
  5
6D
  8
0
 10
31.50000000000006
 20
29.850289223808581
 30
0.0
 11
30.00000000000006
 21
29.850289223808581
 31
0.0
  0
ARC
  5
6E
  8
0
 10
32.939999999999657
 20
35.859455266491437
 30
0.0
 40
1.4399999999999991
 50
115.5296979905436
 51
180.0
  0
LINE
  5
6F
  8
0
 10
32.319390421548242
 20
47.841143428624179
 30
0.0
 11
44.50000000000005
 21
45.67297036841196
 31
0.0
  0
LINE
  5
70
  8
0
 10
36.324000000000133
 20
45.644690627397409
 30
0.0
 11
32.248125212655452
 21
47.877647556919023
 31
0.0
  0
CIRCLE
  5
71
  8
0
 10
40.999999999999602
 20
52.49999999999968
 30
0.0
 40
2.5
  0
CIRCLE
  5
72
  8
0
 10
50.999999999999602
 20
42.49999999999968
 30
0.0
 40
2.5
  0
ARC
  5
73
  8
0
 10
33.715434867141603
 20
42.358098274837772
 30
0.0
 40
4.1959863374739879
 50
308.4389968057867
 51
51.561003194213271
  0
ARC
  5
74
  8
0
 10
47.499999999999602
 20
62.49999999999968
 30
0.0
 40
5.5
 50
291.32368626350558
 51
248.67631373649439
  0
ARC
  5
75
  8
0
 10
32.939999999999657
 20
49.140544733507937
 30
0.0
 40
1.4399999999999991
 50
180.0
 51
241.2839883587425
  0
ARC
  5
76
  8
0
 10
32.249999999999609
 20
62.49999999999968
 30
0.0
 40
2.75
 50
270.0
 51
90.0
  0
LINE
  5
77
  8
0
 10
32.250000000000057
 20
59.749999999999687
 30
0.0
 11
31.500000000000512
 21
59.749999999999687
 31
0.0
  0
LINE
  5
78
  8
0
 10
32.250000000000057
 20
65.249999999999687
 30
0.0
 11
31.500000000000512
 21
65.249999999999687
 31
0.0
  0
LINE
  5
79
  8
0
 10
54.00000000000005
 20
99.999999999999687
 30
0.0
 11
60.000000000000057
 21
93.999999999999673
 31
0.0
  0
LINE
  5
7A
  8
0
 10
32.319390421548242
 20
87.841143428624179
 30
0.0
 11
44.50000000000005
 21
85.672970368411967
 31
0.0
  0
LINE
  5
7B
  8
0
 10
32.319390421548242
 20
77.158856571375196
 30
0.0
 11
44.50000000000005
 21
79.327029631587408
 31
0.0
  0
LINE
  5
7C
  8
0
 10
36.324000000000133
 20
85.644690627397409
 30
0.0
 11
32.248125212655452
 21
87.877647556919015
 31
0.0
  0
LINE
  5
7D
  8
0
 10
36.324000000000133
 20
79.07150592227768
 30
0.0
 11
32.319390421548242
 21
77.158856571375196
 31
0.0
  0
ARC
  5
7E
  8
0
 10
33.715434867141603
 20
82.358098274837772
 30
0.0
 40
4.1959863374739879
 50
308.4389968057867
 51
51.561003194213271
  0
CIRCLE
  5
7F
  8
0
 10
50.999999999999602
 20
82.499999999999687
 30
0.0
 40
2.5
  0
CIRCLE
  5
80
  8
0
 10
40.999999999999602
 20
72.499999999999673
 30
0.0
 40
2.5
  0
CIRCLE
  5
81
  8
0
 10
40.999999999999602
 20
92.499999999999687
 30
0.0
 40
2.5
  0
LINE
  5
82
  8
0
 10
31.50000000000006
 20
75.859455266491437
 30
0.0
 11
31.50000000000006
 21
89.140544733507923
 31
0.0
  0
ARC
  5
83
  8
0
 10
32.939999999999657
 20
75.859455266491437
 30
0.0
 40
1.4399999999999991
 50
115.5296979905436
 51
180.0
  0
ARC
  5
84
  8
0
 10
32.939999999999657
 20
89.140544733507923
 30
0.0
 40
1.4399999999999991
 50
180.0
 51
241.2839883587425
  0
LINE
  5
85
  8
0
 10
31.500000000000512
 20
93.999999999999673
 30
0.0
 11
30.00000000000006
 21
93.999999999999673
 31
0.0
  0
LINE
  5
86
  8
0
 10
54.00000000000005
 20
99.999999999999687
 30
0.0
 11
30.00000000000006
 21
99.999999999999687
 31
0.0
  0
LINE
  5
87
  8
0
 10
28.5
 20
-1.500000000000312
 30
0.0
 11
-28.49999999999994
 21
-1.5000000000003411
 31
0.0
  0
LINE
  5
88
  8
0
 10
14.249999999999771
 20
9.9999999999997158
 30
0.0
 11
-14.249999999999771
 21
9.9999999999997158
 31
0.0
  0
ARC
  5
89
  8
0
 10
-28.49999999999994
 20
1.4999999999996869
 30
0.0
 40
1.5
 50
180.0
 51
270.0
  0
ARC
  5
8A
  8
0
 10
28.50000000000006
 20
1.4999999999996869
 30
0.0
 40
1.5
 50
270.0
 51
0.0
  0
LINE
  5
8B
  8
0
 10
-29.99999999999995
 20
99.999999999999659
 30
0.0
 11
-29.99999999999995
 21
1.4999999999996869
 31
0.0
  0
LINE
  5
8C
  8
0
 10
30.00000000000006
 20
99.999999999999687
 30
0.0
 11
30.00000000000011
 21
1.4999999999996869
 31
0.0
  0
ARC
  5
8D
  8
0
 10
-28.49999999999994
 20
1.4999999999996581
 30
0.0
 40
3.0
 50
180.00000000000031
 51
270.0
  0
ARC
  5
8E
  8
0
 10
28.5
 20
1.4999999999996869
 30
0.0
 40
3.0
 50
270.0
 51
359.99999999999972
  0
LINE
  5
8F
  8
0
 10
-45.499999999999027
 20
56.999999999999687
 30
0.0
 11
-49.499999999999027
 21
56.999999999999687
 31
0.0
  0
LINE
  5
90
  8
0
  6
HIDDEN
 62
     8
 10
-45.499999999999027
 20
55.49999999999968
 30
0.0
 11
-45.499999999999027
 21
56.999999999999687
 31
0.0
  0
LINE
  5
92
  8
0
  6
HIDDEN
 62
     8
 10
-49.499999999999027
 20
55.49999999999968
 30
0.0
 11
-49.499999999999027
 21
56.999999999999687
 31
0.0
  0
LINE
  5
93
  8
0
  6
HIDDEN
 62
     8
 10
-49.499999999999027
 20
55.49999999999968
 30
0.0
 11
-45.499999999999027
 21
55.49999999999968
 31
0.0
  0
LINE
  5
94
  8
0
 10
-49.499999999999027
 20
56.999999999999687
 30
0.0
 11
-49.500000000000171
 21
57.376524617020152
 31
0.0
  0
LINE
  5
95
  8
0
 10
-45.499999999999027
 20
56.999999999999687
 30
0.0
 11
-45.499999999998799
 21
57.376524617020152
 31
0.0
  0
LINE
  5
96
  8
0
 10
49.500000000000057
 20
56.999999999999687
 30
0.0
 11
45.500000000000057
 21
56.999999999999687
 31
0.0
  0
LINE
  5
97
  8
0
  6
HIDDEN
 62
     8
 10
49.500000000000057
 20
55.49999999999968
 30
0.0
 11
49.500000000000057
 21
56.999999999999687
 31
0.0
  0
LINE
  5
98
  8
0
  6
HIDDEN
 62
     8
 10
45.500000000000057
 20
55.49999999999968
 30
0.0
 11
45.500000000000057
 21
56.999999999999687
 31
0.0
  0
LINE
  5
99
  8
0
  6
HIDDEN
 62
     8
 10
45.500000000000057
 20
55.49999999999968
 30
0.0
 11
49.500000000000057
 21
55.49999999999968
 31
0.0
  0
LINE
  5
9A
  8
0
 10
45.500000000000057
 20
56.999999999999687
 30
0.0
 11
45.49999999999892
 21
57.376524617020152
 31
0.0
  0
LINE
  5
9B
  8
0
 10
49.500000000000057
 20
56.999999999999687
 30
0.0
 11
49.500000000000277
 21
57.376524617020152
 31
0.0
  0
INSERT
  5
9C
  8
0
  2
SIMPSON-STRONG-TIE
 10
52.298344394527192
 20
72.136481794212671
 30
0.0
  0
ENDSEC
  0
EOF
