  0
SECTION
  2
HEADER
  9
$ACADVER
  1
AC1006
  9
$DWGCODEPAGE
  3
ansi_1252
  9
$INSBASE
 10
0.0
 20
0.0
 30
0.0
  9
$EXTMIN
 10
0.0
 20
0.0
  9
$EXTMAX
 10
100.0
 20
100.0
  9
$LIMMIN
 10
0.0
 20
0.0
  9
$LIMMAX
 10
100.0
 20
100.0
  9
$VIEWCTR
 10
6.591288
 20
4.579184
  9
$VIEWSIZE
 40
9.158369
  9
$SNAPMODE
 70
     0
  9
$SNAPUNIT
 10
1.0
 20
1.0
  9
$SNAPBASE
 10
0.0
 20
0.0
  9
$SNAPANG
 50
0.0
  9
$SNAPSTYLE
 70
     0
  9
$SNAPISOPAIR
 70
     0
  9
$GRIDMODE
 70
     0
  9
$GRIDUNIT
 10
0.0
 20
0.0
  9
$ORTHOMODE
 70
     0
  9
$REGENMODE
 70
     1
  9
$FILLMODE
 70
     1
  9
$QTEXTMODE
 70
     0
  9
$MIRRTEXT
 70
     1
  9
$DRAGMODE
 70
     2
  9
$LTSCALE
 40
1.0
  9
$OSMODE
 70
     0
  9
$ATTMODE
 70
     1
  9
$TEXTSIZE
 40
0.2
  9
$TRACEWID
 40
0.05
  9
$TEXTSTYLE
  7
STANDARD
  9
$CLAYER
  8
0
  9
$CELTYPE
  6
CONTINUOUS
  9
$CECOLOR
 62
   256
  9
$DIMSCALE
 40
1.0
  9
$DIMASZ
 40
0.18
  9
$DIMEXO
 40
0.0625
  9
$DIMDLI
 40
0.38
  9
$DIMRND
 40
0.0
  9
$DIMDLE
 40
0.0
  9
$DIMEXE
 40
0.18
  9
$DIMTP
 40
0.0
  9
$DIMTM
 40
0.0
  9
$DIMTXT
 40
0.18
  9
$DIMCEN
 40
0.09
  9
$DIMTSZ
 40
0.0
  9
$DIMTOL
 70
     0
  9
$DIMLIM
 70
     0
  9
$DIMTIH
 70
     1
  9
$DIMTOH
 70
     1
  9
$DIMSE1
 70
     0
  9
$DIMSE2
 70
     0
  9
$DIMTAD
 70
     0
  9
$DIMZIN
 70
     0
  9
$DIMBLK
  1

  9
$DIMASO
 70
     1
  9
$DIMSHO
 70
     1
  9
$DIMPOST
  1

  9
$DIMAPOST
  1

  9
$DIMALT
 70
     0
  9
$DIMALTD
 70
     2
  9
$DIMALTF
 40
25.4
  9
$DIMLFAC
 40
1.0
  9
$DIMTOFL
 70
     0
  9
$DIMTVP
 40
0.0
  9
$DIMTIX
 70
     0
  9
$DIMSOXD
 70
     0
  9
$DIMSAH
 70
     0
  9
$DIMBLK1
  1

  9
$DIMBLK2
  1

  9
$LUNITS
 70
     2
  9
$LUPREC
 70
     4
  9
$AXISMODE
 70
     0
  9
$AXISUNIT
 10
0.0
 20
0.0
  9
$SKETCHINC
 40
0.1
  9
$FILLETRAD
 40
0.0
  9
$AUNITS
 70
     0
  9
$AUPREC
 70
     3
  9
$MENU
  1
acad
  9
$ELEVATION
 40
0.0
  9
$THICKNESS
 40
0.0
  9
$LIMCHECK
 70
     0
  9
$BLIPMODE
 70
     1
  9
$CHAMFERA
 40
0.0
  9
$CHAMFERB
 40
0.0
  9
$SKPOLY
 70
     0
  9
$TDCREATE
 40
0.000000000
  9
$TDUPDATE
 40
0.000000000
  9
$TDINDWG
 40
0.0000000000
  9
$TDUSRTIMER
 40
0.0000000000
  9
$USRTIMER
 70
     1
  9
$ANGBASE
 50
0.0
  9
$ANGDIR
 70
     0
  9
$PDMODE
 70
     0
  9
$PDSIZE
 40
0.0
  9
$PLINEWID
 40
0.0
  9
$COORDS
 70
     0
  9
$SPLFRAME
 70
     0
  9
$SPLINETYPE
 70
     6
  9
$SPLINESEGS
 70
     8
  9
$ATTDIA
 70
     0
  9
$ATTREQ
 70
     1
  9
$HANDLING
 70
     0
  9
$HANDSEED
  5
3
  9
$SURFTAB1
 70
     6
  9
$SURFTAB2
 70
     6
  9
$SURFTYPE
 70
     6
  9
$SURFU
 70
     6
  9
$SURFV
 70
     6
  9
$FLATLAND
 70
     0
  9
$UCSNAME
  2

  9
$UCSORG
 10
0.0
 20
0.0
 30
0.0
  9
$UCSXDIR
 10
1.0
 20
0.0
 30
0.0
  9
$UCSYDIR
 10
0.0
 20
1.0
 30
0.0
  9
$USERI1
 70
     0
  9
$USERI2
 70
     0
  9
$USERI3
 70
     0
  9
$USERI4
 70
     0
  9
$USERI5
 70
     0
  9
$USERR1
 40
0.0
  9
$USERR2
 40
0.0
  9
$USERR3
 40
0.0
  9
$USERR4
 40
0.0
  9
$USERR5
 40
0.0
  9
$WORLDVIEW
 70
     1
  0
ENDSEC
  0
SECTION
  2
TABLES
  0
TABLE
  2
VPORT
 70
     1
  0
VPORT
  2
*ACTIVE
 70
     0
 10
0.0
 20
0.0
 11
1.0
 21
1.0
 12
6.591288
 22
4.579184
 13
0.0
 23
0.0
 14
1.0
 24
1.0
 15
0.0
 25
0.0
 16
0.0
 26
0.0
 36
1.0
 17
0.0
 27
0.0
 37
0.0
 40
9.158369
 41
0.688564
 42
50.0
 43
0.0
 44
0.0
 50
0.0
 51
0.0
 71
     0
 72
   100
 73
     1
 74
     1
 75
     0
 76
     0
 77
     0
 78
     0
  0
ENDTAB
  0
TABLE
  2
LTYPE
 70
     3
  0
LTYPE
  2
CONTINUOUS
 70
     0
  3
Solid line
 72
    65
 73
     0
 40
0.0
  0
LTYPE
  2
DOT_CENTER
 70
     0
  3

 72
    65
 73
     0
 40
0.0
  0
LTYPE
  2
PHANTOM
 70
     0
  3

 72
    65
 73
     2
 40
380.999994
 49
304.799995
 49
-76.199999
  0
ENDTAB
  0
TABLE
  2
LAYER
 70
     2
  0
LAYER
  2
0
 70
     0
 62
     1
  6
CONTINUOUS
  0
LAYER
  2
103
 70
     0
 62
     1
  6
CONTINUOUS
  0
ENDTAB
  0
TABLE
  2
STYLE
 70
     1
  0
STYLE
  2
STANDARD
 70
     0
 40
0.0
 41
1.0
 50
0.0
 71
     0
 42
0.2
  3

  4

  0
ENDTAB
  0
TABLE
  2
VIEW
 70
     0
  0
ENDTAB
  0
TABLE
  2
UCS
 70
     0
  0
ENDTAB
  0
ENDSEC
  0
SECTION
  2
BLOCKS
  0
BLOCK
  8
0
  2
_G_T_1
 70
    64
 10
0.0
 20
0.0
  0
TEXT
  8
103
  6
CONTINUOUS
 62
     1
 10
125.0
 20
-176.449997
 30
0.0
 40
5.0
  1
Fenstergriff
 41
1.000004
  0
TEXT
  8
103
  6
CONTINUOUS
 62
     1
 10
125.0
 20
-183.449997
 30
0.0
 40
5.0
  1
34230001
 41
1.000004
  0
ENDBLK
  8
0
  0
ENDSEC
  0
SECTION
  2
ENTITIES
  0
ARC
  8
103
  6
CONTINUOUS
 62
     7
 10
13.75
 20
-261.5
 30
0.0
 40
2.5
 50
270.0
 51
0.0
  0
ARC
  8
103
  6
CONTINUOUS
 62
     7
 10
-13.75
 20
-261.5
 30
0.0
 40
2.5
 50
180.0
 51
270.0
  0
ARC
  8
103
  6
CONTINUOUS
 62
     7
 10
0.0
 20
-18.75
 30
0.0
 40
16.25
 50
309.919951
 51
0.0
  0
ARC
  8
103
  6
CONTINUOUS
 62
     7
 10
261.5
 20
32.5
 30
0.0
 40
2.5
 50
0.0
 51
90.0
  0
ARC
  8
103
  6
CONTINUOUS
 62
     7
 10
261.5
 20
-32.5
 30
0.0
 40
2.5
 50
270.0
 51
0.0
  0
ARC
  8
103
  6
CONTINUOUS
 62
     7
 10
0.0
 20
-18.75
 30
0.0
 40
16.25
 50
180.0
 51
230.080049
  0
CIRCLE
  8
103
  6
PHANTOM
 62
     1
 10
0.0
 20
21.5
 30
0.0
 40
2.75
  0
CIRCLE
  8
103
  6
PHANTOM
 62
     1
 10
0.0
 20
21.5
 30
0.0
 40
5.0
  0
CIRCLE
  8
103
  6
PHANTOM
 62
     1
 10
0.0
 20
-21.5
 30
0.0
 40
2.75
  0
CIRCLE
  8
103
  6
PHANTOM
 62
     1
 10
0.0
 20
-21.5
 30
0.0
 40
5.0
  0
ARC
  8
103
  6
CONTINUOUS
 62
     7
 10
0.0
 20
0.0
 30
0.0
 40
12.0
 50
339.05331
 51
200.94669
  0
ARC
  8
103
  6
PHANTOM
 62
     1
 10
-2.5
 20
-314.5
 30
0.0
 40
7.5
 50
90.0
 51
182.958871
  0
ARC
  8
103
  6
PHANTOM
 62
     1
 10
2.5
 20
-314.5
 30
0.0
 40
7.5
 50
357.041129
 51
90.0
  0
ARC
  8
103
  6
CONTINUOUS
 62
     7
 10
-2.5
 20
-314.5
 30
0.0
 40
7.5
 50
182.958871
 51
270.0
  0
ARC
  8
103
  6
CONTINUOUS
 62
     7
 10
2.5
 20
-314.5
 30
0.0
 40
7.5
 50
270.0
 51
357.041129
  0
ARC
  8
103
  6
CONTINUOUS
 62
     7
 10
0.0
 20
-115.0
 30
0.0
 40
8.0
 50
181.657504
 51
358.342496
  0
ARC
  8
103
  6
CONTINUOUS
 62
     7
 10
294.5
 20
-117.5
 30
0.0
 40
5.5
 50
131.221016
 51
306.13997
  0
ARC
  8
103
  6
CONTINUOUS
 62
     7
 10
157.0
 20
-49.785543
 30
0.0
 40
150.0
 50
0.581197
 51
11.882637
  0
ARC
  8
103
  6
CONTINUOUS
 62
     7
 10
294.0
 20
-20.958472
 30
0.0
 40
10.0
 50
11.882637
 51
92.0
  0
ARC
  8
103
  6
CONTINUOUS
 62
     7
 10
293.0
 20
-14.027941
 30
0.0
 40
25.0
 50
16.68559
 51
88.0
  0
ARC
  8
103
  6
CONTINUOUS
 62
     7
 10
122.0
 20
-49.032614
 30
0.0
 40
200.0
 50
351.890386
 51
0.0
  0
ARC
  8
103
  6
CONTINUOUS
 62
     7
 10
202.0
 20
-41.304304
 30
0.0
 40
120.0
 50
0.0
 51
16.68559
  0
ARC
  8
103
  6
CONTINUOUS
 62
     7
 10
221.0
 20
-63.13935
 30
0.0
 40
100.0
 50
335.896442
 51
351.890386
  0
ARC
  8
103
  6
CONTINUOUS
 62
     7
 10
271.204485
 20
-85.600643
 30
0.0
 40
45.0
 50
306.13997
 51
335.896442
  0
ARC
  8
103
  6
CONTINUOUS
 62
     7
 10
7.007717
 20
-51.307086
 30
0.0
 40
300.0
 50
353.220669
 51
0.581197
  0
ARC
  8
103
  6
CONTINUOUS
 62
     7
 10
263.189915
 20
-81.761236
 30
0.0
 40
42.014005
 50
311.221016
 51
353.220669
  0
ARC
  8
103
  6
PHANTOM
 62
     1
 10
0.0
 20
0.0
 30
0.0
 40
12.0
 50
200.94669
 51
339.05331
  0
LINE
  8
103
  6
CONTINUOUS
 62
     7
 10
-16.25
 20
-250.0
 30
0.0
 11
-16.25
 21
-261.5
 31
0.0
  0
LINE
  8
103
  6
CONTINUOUS
 62
     7
 10
-13.75
 20
-264.0
 30
0.0
 11
13.75
 21
-264.0
 31
0.0
  0
LINE
  8
103
  6
CONTINUOUS
 62
     7
 10
16.25
 20
-261.5
 30
0.0
 11
16.25
 21
-250.0
 31
0.0
  0
LINE
  8
103
  6
CONTINUOUS
 62
     7
 10
16.25
 20
-250.0
 30
0.0
 11
-16.25
 21
-250.0
 31
0.0
  0
LINE
  8
103
  6
DOT_CENTER
 62
     1
 10
0.0
 20
-216.118649
 30
0.0
 11
0.0
 21
-325.118649
 31
0.0
  0
LINE
  8
103
  6
DOT_CENTER
 62
     1
 10
0.0
 20
36.93766
 30
0.0
 11
0.0
 21
-123.473885
 31
0.0
  0
LINE
  8
103
  6
DOT_CENTER
 62
     1
 10
18.180702
 20
0.0
 30
0.0
 11
-17.819298
 21
0.0
 31
0.0
  0
LINE
  8
103
  6
CONTINUOUS
 62
     7
 10
16.25
 20
-18.75
 30
0.0
 11
16.25
 21
18.75
 31
0.0
  0
LINE
  8
103
  6
CONTINUOUS
 62
     7
 10
-16.25
 20
18.75
 30
0.0
 11
-16.25
 21
-18.75
 31
0.0
  0
LINE
  8
103
  6
CONTINUOUS
 62
     7
 10
250.0
 20
-35.0
 30
0.0
 11
261.5
 21
-35.0
 31
0.0
  0
LINE
  8
103
  6
CONTINUOUS
 62
     7
 10
264.0
 20
-32.5
 30
0.0
 11
264.0
 21
32.5
 31
0.0
  0
LINE
  8
103
  6
CONTINUOUS
 62
     7
 10
261.5
 20
35.0
 30
0.0
 11
250.0
 21
35.0
 31
0.0
  0
LINE
  8
103
  6
DOT_CENTER
 62
     1
 10
217.0
 20
0.0
 30
0.0
 11
286.0
 21
0.0
 31
0.0
  0
LINE
  8
103
  6
CONTINUOUS
 62
     7
 10
250.0
 20
35.0
 30
0.0
 11
250.0
 21
-35.0
 31
0.0
  0
LINE
  8
103
  6
PHANTOM
 62
     1
 10
257.0
 20
16.5
 30
0.0
 11
254.75
 21
18.75
 31
0.0
  0
LINE
  8
103
  6
PHANTOM
 62
     1
 10
254.75
 20
24.25
 30
0.0
 11
254.75
 21
18.75
 31
0.0
  0
LINE
  8
103
  6
PHANTOM
 62
     1
 10
257.0
 20
26.5
 30
0.0
 11
257.0
 21
16.5
 31
0.0
  0
LINE
  8
103
  6
PHANTOM
 62
     1
 10
263.0
 20
16.5
 30
0.0
 11
257.0
 21
16.5
 31
0.0
  0
LINE
  8
103
  6
PHANTOM
 62
     1
 10
254.75
 20
24.25
 30
0.0
 11
257.0
 21
26.5
 31
0.0
  0
LINE
  8
103
  6
PHANTOM
 62
     1
 10
257.0
 20
26.5
 30
0.0
 11
263.0
 21
26.5
 31
0.0
  0
LINE
  8
103
  6
PHANTOM
 62
     1
 10
257.0
 20
-26.5
 30
0.0
 11
254.75
 21
-24.25
 31
0.0
  0
LINE
  8
103
  6
PHANTOM
 62
     1
 10
254.75
 20
-18.75
 30
0.0
 11
254.75
 21
-24.25
 31
0.0
  0
LINE
  8
103
  6
PHANTOM
 62
     1
 10
257.0
 20
-16.5
 30
0.0
 11
257.0
 21
-26.5
 31
0.0
  0
LINE
  8
103
  6
PHANTOM
 62
     1
 10
263.0
 20
-26.5
 30
0.0
 11
257.0
 21
-26.5
 31
0.0
  0
LINE
  8
103
  6
PHANTOM
 62
     1
 10
254.75
 20
-18.75
 30
0.0
 11
257.0
 21
-16.5
 31
0.0
  0
LINE
  8
103
  6
PHANTOM
 62
     1
 10
257.0
 20
-16.5
 30
0.0
 11
263.0
 21
-16.5
 31
0.0
  0
LINE
  8
103
  6
PHANTOM
 62
     1
 10
-3.49
 20
-3.49
 30
0.0
 11
3.49
 21
-3.49
 31
0.0
  0
LINE
  8
103
  6
PHANTOM
 62
     1
 10
3.49
 20
-3.49
 30
0.0
 11
3.49
 21
3.49
 31
0.0
  0
LINE
  8
103
  6
PHANTOM
 62
     1
 10
3.49
 20
3.49
 30
0.0
 11
-3.49
 21
3.49
 31
0.0
  0
LINE
  8
103
  6
PHANTOM
 62
     1
 10
-3.49
 20
3.49
 30
0.0
 11
-3.49
 21
-3.49
 31
0.0
  0
LINE
  8
103
  6
DOT_CENTER
 62
     1
 10
-7.297587
 20
21.5
 30
0.0
 11
6.702413
 21
21.5
 31
0.0
  0
LINE
  8
103
  6
DOT_CENTER
 62
     1
 10
-7.297587
 20
-21.5
 30
0.0
 11
6.702413
 21
-21.5
 31
0.0
  0
LINE
  8
103
  6
PHANTOM
 62
     1
 10
-2.5
 20
-307.0
 30
0.0
 11
2.5
 21
-307.0
 31
0.0
  0
LINE
  8
103
  6
CONTINUOUS
 62
     7
 10
-12.0
 20
-264.0
 30
0.0
 11
-9.990001
 21
-314.887143
 31
0.0
  0
LINE
  8
103
  6
CONTINUOUS
 62
     7
 10
-2.5
 20
-322.0
 30
0.0
 11
2.5
 21
-322.0
 31
0.0
  0
LINE
  8
103
  6
CONTINUOUS
 62
     7
 10
9.990001
 20
-314.887143
 30
0.0
 11
12.0
 21
-264.0
 31
0.0
  0
LINE
  8
103
  6
CONTINUOUS
 62
     7
 10
-7.996653
 20
-115.231399
 30
0.0
 11
-11.206962
 21
-4.28999
 31
0.0
  0
LINE
  8
103
  6
CONTINUOUS
 62
     7
 10
11.206962
 20
-4.28999
 30
0.0
 11
7.996653
 21
-115.231399
 31
0.0
  0
LINE
  8
103
  6
CONTINUOUS
 62
     7
 10
293.872487
 20
10.95683
 30
0.0
 11
264.0
 21
12.0
 31
0.0
  0
LINE
  8
103
  6
CONTINUOUS
 62
     7
 10
264.0
 20
-12.0
 30
0.0
 11
293.651005
 21
-10.964564
 31
0.0
  0
LINE
  8
103
  6
CONTINUOUS
 62
     7
 10
322.0
 20
-41.304304
 30
0.0
 11
322.0
 21
-49.032614
 31
0.0
  0
ARC
  8
103
  6
CONTINUOUS
 62
     7
 10
223.642712
 20
0.0
 30
0.0
 40
4.935605
 50
135.0
 51
225.0
  0
ARC
  8
103
  6
CONTINUOUS
 62
     7
 10
0.0
 20
-223.642712
 30
0.0
 40
4.935605
 50
45.0
 51
135.0
  0
LINE
  8
103
  6
PHANTOM
 62
     1
 10
245.0
 20
-18.75
 30
0.0
 11
254.75
 21
-18.75
 31
0.0
  0
LINE
  8
103
  6
PHANTOM
 62
     1
 10
254.75
 20
-24.25
 30
0.0
 11
245.0
 21
-24.25
 31
0.0
  0
LINE
  8
103
  6
PHANTOM
 62
     1
 10
245.0
 20
24.25
 30
0.0
 11
254.75
 21
24.25
 31
0.0
  0
LINE
  8
103
  6
PHANTOM
 62
     1
 10
254.75
 20
18.75
 30
0.0
 11
245.0
 21
18.75
 31
0.0
  0
LINE
  8
103
  6
CONTINUOUS
 62
     7
 10
250.0
 20
-16.575
 30
0.0
 11
247.5
 21
-16.575
 31
0.0
  0
LINE
  8
103
  6
CONTINUOUS
 62
     7
 10
247.5
 20
-16.575
 30
0.0
 11
245.0
 21
-17.484926
 31
0.0
  0
LINE
  8
103
  6
CONTINUOUS
 62
     7
 10
245.0
 20
-25.515074
 30
0.0
 11
245.0
 21
-17.484926
 31
0.0
  0
LINE
  8
103
  6
CONTINUOUS
 62
     7
 10
245.0
 20
-25.515074
 30
0.0
 11
247.5
 21
-26.425
 31
0.0
  0
LINE
  8
103
  6
CONTINUOUS
 62
     7
 10
247.5
 20
-26.425
 30
0.0
 11
250.0
 21
-26.425
 31
0.0
  0
LINE
  8
103
  6
CONTINUOUS
 62
     7
 10
245.0
 20
25.515074
 30
0.0
 11
245.0
 21
17.484926
 31
0.0
  0
LINE
  8
103
  6
CONTINUOUS
 62
     7
 10
247.5
 20
16.575
 30
0.0
 11
250.0
 21
16.575
 31
0.0
  0
LINE
  8
103
  6
CONTINUOUS
 62
     7
 10
245.0
 20
17.484926
 30
0.0
 11
247.5
 21
16.575
 31
0.0
  0
LINE
  8
103
  6
CONTINUOUS
 62
     7
 10
247.5
 20
26.425
 30
0.0
 11
245.0
 21
25.515074
 31
0.0
  0
LINE
  8
103
  6
CONTINUOUS
 62
     7
 10
250.0
 20
26.425
 30
0.0
 11
247.5
 21
26.425
 31
0.0
  0
LINE
  8
103
  6
DOT_CENTER
 62
     1
 10
242.81991
 20
21.5
 30
0.0
 11
260.0
 21
21.5
 31
0.0
  0
LINE
  8
103
  6
DOT_CENTER
 62
     1
 10
243.460994
 20
-21.5
 30
0.0
 11
260.0
 21
-21.5
 31
0.0
  0
LINE
  8
103
  6
CONTINUOUS
 62
     7
 10
247.5
 20
26.425
 30
0.0
 11
247.5
 21
16.575
 31
0.0
  0
LINE
  8
103
  6
CONTINUOUS
 62
     7
 10
247.5
 20
-16.575
 30
0.0
 11
247.5
 21
-26.425
 31
0.0
  0
LINE
  8
103
  6
CONTINUOUS
 62
     7
 10
218.5
 20
3.49
 30
0.0
 11
250.0
 21
3.49
 31
0.0
  0
LINE
  8
103
  6
CONTINUOUS
 62
     7
 10
218.0
 20
-2.99
 30
0.0
 11
218.5
 21
-3.49
 31
0.0
  0
LINE
  8
103
  6
CONTINUOUS
 62
     7
 10
218.5
 20
3.49
 30
0.0
 11
218.0
 21
2.99
 31
0.0
  0
LINE
  8
103
  6
CONTINUOUS
 62
     7
 10
218.0
 20
-2.99
 30
0.0
 11
218.0
 21
2.99
 31
0.0
  0
LINE
  8
103
  6
CONTINUOUS
 62
     7
 10
250.0
 20
-3.49
 30
0.0
 11
218.5
 21
-3.49
 31
0.0
  0
LINE
  8
103
  6
CONTINUOUS
 62
     7
 10
4.015074
 20
-245.0
 30
0.0
 11
-4.015074
 21
-245.0
 31
0.0
  0
LINE
  8
103
  6
CONTINUOUS
 62
     7
 10
-4.925
 20
-247.5
 30
0.0
 11
-4.925
 21
-250.0
 31
0.0
  0
LINE
  8
103
  6
CONTINUOUS
 62
     7
 10
-4.015074
 20
-245.0
 30
0.0
 11
-4.925
 21
-247.5
 31
0.0
  0
LINE
  8
103
  6
CONTINUOUS
 62
     7
 10
4.925
 20
-247.5
 30
0.0
 11
4.015074
 21
-245.0
 31
0.0
  0
LINE
  8
103
  6
CONTINUOUS
 62
     7
 10
4.925
 20
-250.0
 30
0.0
 11
4.925
 21
-247.5
 31
0.0
  0
LINE
  8
103
  6
CONTINUOUS
 62
     7
 10
4.925
 20
-247.5
 30
0.0
 11
-4.925
 21
-247.5
 31
0.0
  0
LINE
  8
103
  6
CONTINUOUS
 62
     7
 10
3.49
 20
-218.5
 30
0.0
 11
3.49
 21
-245.0
 31
0.0
  0
LINE
  8
103
  6
CONTINUOUS
 62
     7
 10
-2.99
 20
-218.0
 30
0.0
 11
-3.49
 21
-218.5
 31
0.0
  0
LINE
  8
103
  6
CONTINUOUS
 62
     7
 10
3.49
 20
-218.5
 30
0.0
 11
2.99
 21
-218.0
 31
0.0
  0
LINE
  8
103
  6
CONTINUOUS
 62
     7
 10
-2.99
 20
-218.0
 30
0.0
 11
2.99
 21
-218.0
 31
0.0
  0
LINE
  8
103
  6
CONTINUOUS
 62
     7
 10
-3.49
 20
-245.0
 30
0.0
 11
-3.49
 21
-218.5
 31
0.0
  0
INSERT
  8
0
  2
_G_T_1
 10
0.0
 20
0.0
 30
0.0
  0
ARC
  8
103
  6
CONTINUOUS
 62
     7
 10
0.0
 20
18.75
 30
0.0
 40
16.25
 50
0.0
 51
180.0
  0
ARC
  8
103
  6
PHANTOM
 62
     1
 10
0.0
 20
-18.75
 30
0.0
 40
16.25
 50
230.080049
 51
309.919951
  0
ENDSEC
  0
EOF
