  0
SECTION
  2
HEADER
  9
$ACADVER
  1
AC1012
  9
$DWGCODEPAGE
  3
ansi_1252
  9
$INSBASE
 10
0.0
 20
0.0
 30
0.0
  9
$EXTMIN
 10
0.0
 20
0.0
 30
0.0
  9
$EXTMAX
 10
210.0
 20
297.0
 30
0.0
  9
$LIMMIN
 10
0.0
 20
0.0
  9
$LIMMAX
 10
210.0
 20
297.0
  9
$ORTHOMODE
 70
     0
  9
$REGENMODE
 70
     1
  9
$FILLMODE
 70
     1
  9
$QTEXTMODE
 70
     0
  9
$MIRRTEXT
 70
     1
  9
$DRAGMODE
 70
     2
  9
$LTSCALE
 40
1.0
  9
$OSMODE
 70
    37
  9
$ATTMODE
 70
     1
  9
$TEXTSIZE
 40
0.2
  9
$TRACEWID
 40
0.05
  9
$TEXTSTYLE
  7
STANDARD
  9
$CLAYER
  8
0
  9
$CELTYPE
  6
BYLAYER
  9
$CECOLOR
 62
   256
  9
$CELTSCALE
 40
25.4
  9
$DELOBJ
 70
     1
  9
$DISPSILH
 70
     0
  9
$DIMSCALE
 40
1.0
  9
$DIMASZ
 40
0.18
  9
$DIMEXO
 40
0.0625
  9
$DIMDLI
 40
0.38
  9
$DIMRND
 40
0.0
  9
$DIMDLE
 40
0.0
  9
$DIMEXE
 40
0.18
  9
$DIMTP
 40
0.0
  9
$DIMTM
 40
0.0
  9
$DIMTXT
 40
0.18
  9
$DIMCEN
 40
0.09
  9
$DIMTSZ
 40
0.0
  9
$DIMTOL
 70
     0
  9
$DIMLIM
 70
     0
  9
$DIMTIH
 70
     1
  9
$DIMTOH
 70
     1
  9
$DIMSE1
 70
     0
  9
$DIMSE2
 70
     0
  9
$DIMTAD
 70
     0
  9
$DIMZIN
 70
     0
  9
$DIMBLK
  1

  9
$DIMASO
 70
     1
  9
$DIMSHO
 70
     1
  9
$DIMPOST
  1

  9
$DIMAPOST
  1

  9
$DIMALT
 70
     0
  9
$DIMALTD
 70
     2
  9
$DIMALTF
 40
25.4
  9
$DIMLFAC
 40
1.0
  9
$DIMTOFL
 70
     0
  9
$DIMTVP
 40
0.0
  9
$DIMTIX
 70
     0
  9
$DIMSOXD
 70
     0
  9
$DIMSAH
 70
     0
  9
$DIMBLK1
  1

  9
$DIMBLK2
  1

  9
$DIMSTYLE
  2
STANDARD
  9
$DIMCLRD
 70
     0
  9
$DIMCLRE
 70
     0
  9
$DIMCLRT
 70
     0
  9
$DIMTFAC
 40
1.0
  9
$DIMGAP
 40
0.09
  9
$DIMJUST
 70
     0
  9
$DIMSD1
 70
     0
  9
$DIMSD2
 70
     0
  9
$DIMTOLJ
 70
     1
  9
$DIMTZIN
 70
     0
  9
$DIMALTZ
 70
     0
  9
$DIMALTTZ
 70
     0
  9
$DIMFIT
 70
     3
  9
$DIMUPT
 70
     0
  9
$DIMUNIT
 70
     2
  9
$DIMDEC
 70
     4
  9
$DIMTDEC
 70
     4
  9
$DIMALTU
 70
     2
  9
$DIMALTTD
 70
     2
  9
$DIMTXSTY
  7
STANDARD
  9
$DIMAUNIT
 70
     0
  9
$LUNITS
 70
     2
  9
$LUPREC
 70
     4
  9
$SKETCHINC
 40
0.1
  9
$FILLETRAD
 40
0.5
  9
$AUNITS
 70
     0
  9
$AUPREC
 70
     0
  9
$MENU
  1
.
  9
$ELEVATION
 40
0.0
  9
$PELEVATION
 40
0.0
  9
$THICKNESS
 40
0.0
  9
$LIMCHECK
 70
     0
  9
$CHAMFERA
 40
0.5
  9
$CHAMFERB
 40
0.5
  9
$CHAMFERC
 40
1.0
  9
$CHAMFERD
 40
0.0
  9
$SKPOLY
 70
     0
  9
$TDCREATE
 40
2453762.545739757
  9
$TDUPDATE
 40
2453762.545739769
  9
$TDINDWG
 40
0.0000000116
  9
$TDUSRTIMER
 40
0.0000000116
  9
$USRTIMER
 70
     1
  9
$ANGBASE
 50
0.0
  9
$ANGDIR
 70
     0
  9
$PDMODE
 70
     0
  9
$PDSIZE
 40
0.0
  9
$PLINEWID
 40
0.0
  9
$COORDS
 70
     1
  9
$SPLFRAME
 70
     0
  9
$SPLINETYPE
 70
     6
  9
$SPLINESEGS
 70
     8
  9
$ATTDIA
 70
     0
  9
$ATTREQ
 70
     1
  9
$HANDLING
 70
     1
  9
$HANDSEED
  5
29B
  9
$SURFTAB1
 70
     6
  9
$SURFTAB2
 70
     6
  9
$SURFTYPE
 70
     6
  9
$SURFU
 70
     6
  9
$SURFV
 70
     6
  9
$UCSNAME
  2

  9
$UCSORG
 10
0.0
 20
0.0
 30
0.0
  9
$UCSXDIR
 10
1.0
 20
0.0
 30
0.0
  9
$UCSYDIR
 10
0.0
 20
1.0
 30
0.0
  9
$PUCSNAME
  2

  9
$PUCSORG
 10
0.0
 20
0.0
 30
0.0
  9
$PUCSXDIR
 10
1.0
 20
0.0
 30
0.0
  9
$PUCSYDIR
 10
0.0
 20
1.0
 30
0.0
  9
$USERI1
 70
     0
  9
$USERI2
 70
     0
  9
$USERI3
 70
     0
  9
$USERI4
 70
     0
  9
$USERI5
 70
     0
  9
$USERR1
 40
0.0
  9
$USERR2
 40
0.0
  9
$USERR3
 40
0.0
  9
$USERR4
 40
0.0
  9
$USERR5
 40
0.0
  9
$WORLDVIEW
 70
     1
  9
$SHADEDGE
 70
     3
  9
$SHADEDIF
 70
    70
  9
$TILEMODE
 70
     1
  9
$MAXACTVP
 70
    64
  9
$PINSBASE
 10
0.0
 20
0.0
 30
0.0
  9
$PLIMCHECK
 70
     0
  9
$PEXTMIN
 10
0.0
 20
0.0
 30
0.0
  9
$PEXTMAX
 10
210.0
 20
297.0
 30
0.0
  9
$PLIMMIN
 10
0.0
 20
0.0
  9
$PLIMMAX
 10
12.0
 20
9.0
  9
$UNITMODE
 70
     0
  9
$VISRETAIN
 70
     1
  9
$PLINEGEN
 70
     0
  9
$PSLTSCALE
 70
     1
  9
$TREEDEPTH
 70
  3020
  9
$PICKSTYLE
 70
     1
  9
$CMLSTYLE
  2
STANDARD
  9
$CMLJUST
 70
     0
  9
$CMLSCALE
 40
1.0
  9
$SAVEIMAGES
 70
     1
  0
ENDSEC
  0
SECTION
  2
CLASSES
  0
CLASS
  1
ACDBDICTIONARYWDFLT
  2
AcDbDictionaryWithDefault
  3
ObjectDBX Classes
 90
        0
280
     0
281
     0
  0
CLASS
  1
TABLESTYLE
  2
AcDbTableStyle
  3
ObjectDBX Classes
 90
     2047
280
     0
281
     0
  0
CLASS
  1
DICTIONARYVAR
  2
AcDbDictionaryVar
  3
ObjectDBX Classes
 90
        0
280
     0
281
     0
  0
CLASS
  1
XRECORD
  2
AcDbXrecord
  3
AutoCAD 2000
 90
    32768
280
     0
281
     0
  0
CLASS
  1
LWPOLYLINE
  2
AcDbPolyline
  3
AutoCAD 2000
 90
    32768
280
     0
281
     1
  0
CLASS
  1
HATCH
  2
AcDbHatch
  3
AutoCAD 2000
 90
    32768
280
     0
281
     1
  0
CLASS
  1
ACDBPLACEHOLDER
  2
AcDbPlaceHolder
  3
ObjectDBX Classes
 90
        0
280
     0
281
     0
  0
CLASS
  1
LAYOUT
  2
AcDbLayout
  3
ObjectDBX Classes
 90
        0
280
     0
281
     0
  0
ENDSEC
  0
SECTION
  2
TABLES
  0
TABLE
  2
VPORT
  5
8
330
0
100
AcDbSymbolTable
 70
     2
  0
VPORT
  5
29
102
{ACAD_XDICTIONARY
360
299
102
}
330
8
100
AcDbSymbolTableRecord
100
AcDbViewportTableRecord
  2
*ACTIVE
 70
     0
 10
0.0
 20
0.0
 11
1.0
 21
1.0
 12
10.4299065421
 22
4.5
 13
0.0
 23
0.0
 14
0.5
 24
0.5
 15
0.5
 25
0.5
 16
0.0
 26
0.0
 36
1.0
 17
0.0
 27
0.0
 37
0.0
 40
9.0
 41
1.9729729729
 42
50.0
 43
0.0
 44
0.0
 50
0.0
 51
0.0
 71
     0
 72
   100
 73
     1
 74
     3
 75
     0
 76
     0
 77
     0
 78
     0
  0
ENDTAB
  0
TABLE
  2
LTYPE
  5
5
330
0
100
AcDbSymbolTable
 70
     3
  0
LTYPE
  5
14
330
5
100
AcDbSymbolTableRecord
100
AcDbLinetypeTableRecord
  2
BYBLOCK
 70
     0
  3

 72
    65
 73
     0
 40
0.0
  0
LTYPE
  5
15
330
5
100
AcDbSymbolTableRecord
100
AcDbLinetypeTableRecord
  2
BYLAYER
 70
     0
  3

 72
    65
 73
     0
 40
0.0
  0
LTYPE
  5
16
330
5
100
AcDbSymbolTableRecord
100
AcDbLinetypeTableRecord
  2
CONTINUOUS
 70
     0
  3
Solid line
 72
    65
 73
     0
 40
0.0
  0
LTYPE
  5
31
330
5
100
AcDbSymbolTableRecord
100
AcDbLinetypeTableRecord
  2
CENTER2
 70
     0
  3
___ _ ___ _ ___ _ ___ _ ___ _ ___ _ ___ _ ___ _
 72
    65
 73
     4
 40
1.125
 49
0.75
 74
     4
 75
     0
340
0
 46
0.0
 50
0.0
 44
0.0
 45
0.0
 49
-0.125
 74
     4
 75
     0
340
0
 46
0.0
 50
0.0
 44
0.0
 45
0.0
 49
0.125
 74
     4
 75
     0
340
0
 46
0.0
 50
0.0
 44
0.0
 45
0.0
 49
-0.125
 74
     4
 75
     0
340
0
 46
0.0
 50
0.0
 44
0.0
 45
0.0
  0
LTYPE
  5
92
330
5
100
AcDbSymbolTableRecord
100
AcDbLinetypeTableRecord
  2
HIDDEN2
 70
     0
  3
_ _ _ _ _ _ _ _ _ _ _ _ _ _ _ _ _ _ _ _ _ _ _ _
 72
    65
 73
     2
 40
0.1875
 49
0.125
 74
     4
 75
     0
340
0
 46
0.0
 50
0.0
 44
0.0
 45
0.0
 49
-0.0625
 74
     4
 75
     0
340
0
 46
0.0
 50
0.0
 44
0.0
 45
0.0
  0
ENDTAB
  0
TABLE
  2
LAYER
  5
2
330
0
100
AcDbSymbolTable
 70
     5
  0
LAYER
  5
10
330
2
100
AcDbSymbolTableRecord
100
AcDbLayerTableRecord
  2
0
 70
     0
 62
     7
  6
CONTINUOUS
  0
LAYER
  5
30
330
2
100
AcDbSymbolTableRecord
100
AcDbLayerTableRecord
  2
DEFAULT
 70
     0
 62
     7
  6
CONTINUOUS
  0
LAYER
  5
64
330
2
100
AcDbSymbolTableRecord
100
AcDbLayerTableRecord
  2
MEGA_002187
 70
     0
 62
     7
  6
CONTINUOUS
  0
LAYER
  5
9F
330
2
100
AcDbSymbolTableRecord
100
AcDbLayerTableRecord
  2
MEGA_001982
 70
     0
 62
     7
  6
CONTINUOUS
  0
LAYER
  5
158
330
2
100
AcDbSymbolTableRecord
100
AcDbLayerTableRecord
  2
MEGA_002634
 70
     0
 62
     7
  6
CONTINUOUS
  0
ENDTAB
  0
TABLE
  2
STYLE
  5
3
330
0
100
AcDbSymbolTable
 70
     3
  0
STYLE
  5
11
330
3
100
AcDbSymbolTableRecord
100
AcDbTextStyleTableRecord
  2
STANDARD
 70
     0
 40
0.0
 41
1.0
 50
0.0
 71
     0
 42
0.2
  3
txt
  4

  0
STYLE
  5
22A
330
3
100
AcDbSymbolTableRecord
100
AcDbTextStyleTableRecord
  2
SEACAD_SEISO_TTF
 70
     0
 40
0.2
 41
1.0
 50
0.0
 71
     0
 42
0.2
  3
seiso.ttf
  4

  0
STYLE
  5
24A
330
3
100
AcDbSymbolTableRecord
100
AcDbTextStyleTableRecord
  2
SEACAD_SEMECI1_TTF
 70
     0
 40
0.2
 41
1.0
 50
0.0
 71
     0
 42
0.2
  3
semeci1.ttf
  4

  0
ENDTAB
  0
TABLE
  2
VIEW
  5
6
330
0
100
AcDbSymbolTable
 70
     0
  0
ENDTAB
  0
TABLE
  2
UCS
  5
7
330
0
100
AcDbSymbolTable
 70
     0
  0
ENDTAB
  0
TABLE
  2
APPID
  5
9
330
0
100
AcDbSymbolTable
 70
     1
  0
APPID
  5
12
330
9
100
AcDbSymbolTableRecord
100
AcDbRegAppTableRecord
  2
ACAD
 70
     0
  0
ENDTAB
  0
TABLE
  2
DIMSTYLE
  5
A
330
0
100
AcDbSymbolTable
 70
     1
  0
DIMSTYLE
105
27
330
A
100
AcDbSymbolTableRecord
100
AcDbDimStyleTableRecord
  2
STANDARD
 70
     0
  3

  4

  5

  6

  7

 40
1.0
 41
0.18
 42
0.0625
 43
0.38
 44
0.18
 45
0.0
 46
0.0
 47
0.0
 48
0.0
140
0.18
141
0.09
142
0.0
143
25.4
144
1.0
145
0.0
146
1.0
147
0.09
 71
     0
 72
     0
 73
     1
 74
     1
 75
     0
 76
     0
 77
     0
 78
     0
170
     0
171
     2
172
     0
173
     0
174
     0
175
     0
176
     0
177
     0
178
     0
270
     2
271
     4
272
     4
273
     2
274
     2
340
11
275
     0
280
     0
281
     0
282
     0
283
     1
284
     0
285
     0
286
     0
287
     3
288
     0
  0
ENDTAB
  0
TABLE
  2
BLOCK_RECORD
  5
1
330
0
100
AcDbSymbolTable
 70
    18
  0
BLOCK_RECORD
  5
1F
330
1
100
AcDbSymbolTableRecord
100
AcDbBlockTableRecord
  2
*MODEL_SPACE
  0
BLOCK_RECORD
  5
1B
330
1
100
AcDbSymbolTableRecord
100
AcDbBlockTableRecord
  2
*PAPER_SPACE
  0
BLOCK_RECORD
  5
2E
330
1
100
AcDbSymbolTableRecord
100
AcDbBlockTableRecord
  2
SE
  0
BLOCK_RECORD
  5
35
330
1
100
AcDbSymbolTableRecord
100
AcDbBlockTableRecord
  2
SE1
  0
BLOCK_RECORD
  5
3A
330
1
100
AcDbSymbolTableRecord
100
AcDbBlockTableRecord
  2
SE2
  0
BLOCK_RECORD
  5
3F
330
1
100
AcDbSymbolTableRecord
100
AcDbBlockTableRecord
  2
SE3
  0
BLOCK_RECORD
  5
44
330
1
100
AcDbSymbolTableRecord
100
AcDbBlockTableRecord
  2
SE4
  0
BLOCK_RECORD
  5
4E
330
1
100
AcDbSymbolTableRecord
100
AcDbBlockTableRecord
  2
SE5
  0
BLOCK_RECORD
  5
58
330
1
100
AcDbSymbolTableRecord
100
AcDbBlockTableRecord
  2
SE6
  0
BLOCK_RECORD
  5
5D
330
1
100
AcDbSymbolTableRecord
100
AcDbBlockTableRecord
  2
SE7
  0
BLOCK_RECORD
  5
62
330
1
100
AcDbSymbolTableRecord
100
AcDbBlockTableRecord
  2
SE8
  0
BLOCK_RECORD
  5
164
330
1
100
AcDbSymbolTableRecord
100
AcDbBlockTableRecord
  2
SE9
  0
BLOCK_RECORD
  5
1B0
330
1
100
AcDbSymbolTableRecord
100
AcDbBlockTableRecord
  2
SE10
  0
BLOCK_RECORD
  5
224
330
1
100
AcDbSymbolTableRecord
100
AcDbBlockTableRecord
  2
SE11
  0
BLOCK_RECORD
  5
22E
330
1
100
AcDbSymbolTableRecord
100
AcDbBlockTableRecord
  2
SE12
  0
BLOCK_RECORD
  5
238
330
1
100
AcDbSymbolTableRecord
100
AcDbBlockTableRecord
  2
SE13
  0
BLOCK_RECORD
  5
242
330
1
100
AcDbSymbolTableRecord
100
AcDbBlockTableRecord
  2
SE14
  0
BLOCK_RECORD
  5
24E
330
1
100
AcDbSymbolTableRecord
100
AcDbBlockTableRecord
  2
SE15
  0
BLOCK_RECORD
  5
258
330
1
100
AcDbSymbolTableRecord
100
AcDbBlockTableRecord
  2
SE16
  0
ENDTAB
  0
ENDSEC
  0
SECTION
  2
BLOCKS
  0
BLOCK
  5
20
330
1F
100
AcDbEntity
  8
0
100
AcDbBlockBegin
  2
*MODEL_SPACE
 70
     0
 71
     0
 10
0.0
 20
0.0
 30
0.0
  3
*MODEL_SPACE
  1

  0
ENDBLK
  5
21
330
1F
100
AcDbEntity
  8
0
100
AcDbBlockEnd
  0
BLOCK
  5
1C
330
1B
100
AcDbEntity
 67
     1
  8
0
100
AcDbBlockBegin
  2
*PAPER_SPACE
 70
     0
 71
     0
 10
0.0
 20
0.0
 30
0.0
  3
*PAPER_SPACE
  1

  0
ENDBLK
  5
1D
330
1B
100
AcDbEntity
 67
     1
  8
0
100
AcDbBlockEnd
  0
BLOCK
  5
33
330
2E
100
AcDbEntity
  8
0
100
AcDbBlockBegin
  2
SE
 70
     0
 71
     0
 10
0.0
 20
0.0
 30
0.0
  3
SE
  1

  0
LINE
  5
32
330
2E
100
AcDbEntity
  8
DEFAULT
  6
CENTER2
 62
     7
 48
25.4
100
AcDbLine
 10
76.2413436847
 20
45.4331151797
 30
0.0
 11
76.2413436847
 21
143.8698400673
 31
0.0
  0
ENDBLK
  5
34
330
2E
100
AcDbEntity
  8
0
100
AcDbBlockEnd
  0
BLOCK
  5
38
330
35
100
AcDbEntity
  8
0
100
AcDbBlockBegin
  2
SE1
 70
     0
 71
     0
 10
0.0
 20
0.0
 30
0.0
  3
SE1
  1

  0
LINE
  5
37
330
35
100
AcDbEntity
  8
DEFAULT
  6
CENTER2
 62
     7
 48
25.4
100
AcDbLine
 10
76.2413436847
 20
160.0831659109
 30
0.0
 11
76.2413436847
 21
246.8184216814
 31
0.0
  0
ENDBLK
  5
39
330
35
100
AcDbEntity
  8
0
100
AcDbBlockEnd
  0
BLOCK
  5
3D
330
3A
100
AcDbEntity
  8
0
100
AcDbBlockBegin
  2
SE2
 70
     0
 71
     0
 10
0.0
 20
0.0
 30
0.0
  3
SE2
  1

  0
LINE
  5
3C
330
3A
100
AcDbEntity
  8
DEFAULT
  6
CENTER2
 62
     7
 48
25.4
100
AcDbLine
 10
151.5111654731
 20
46.0977531549
 30
0.0
 11
151.5111654731
 21
143.7074398672
 31
0.0
  0
ENDBLK
  5
3E
330
3A
100
AcDbEntity
  8
0
100
AcDbBlockEnd
  0
BLOCK
  5
42
330
3F
100
AcDbEntity
  8
0
100
AcDbBlockBegin
  2
SE3
 70
     0
 71
     0
 10
0.0
 20
0.0
 30
0.0
  3
SE3
  1

  0
LINE
  5
41
330
3F
100
AcDbEntity
  8
DEFAULT
  6
CENTER2
 62
     7
 48
25.4
100
AcDbLine
 10
108.9913436847
 20
204.5472012993
 30
0.0
 11
42.9362843286
 21
204.5472012993
 31
0.0
  0
ENDBLK
  5
43
330
3F
100
AcDbEntity
  8
0
100
AcDbBlockEnd
  0
BLOCK
  5
4C
330
44
100
AcDbEntity
  8
0
100
AcDbBlockBegin
  2
SE4
 70
     0
 71
     0
 10
0.0
 20
0.0
 30
0.0
  3
SE4
  1

  0
LINE
  5
46
330
44
100
AcDbEntity
  8
DEFAULT
  6
CENTER2
 62
     7
 48
25.4
100
AcDbLine
 10
54.7413436847
 20
210.5472013515
 30
0.0
 11
54.7413436847
 21
198.5472012472
 31
0.0
  0
LINE
  5
47
330
44
100
AcDbEntity
  8
DEFAULT
  6
CENTER2
 62
     7
 48
25.4
100
AcDbLine
 10
48.7413436325
 20
204.5472012993
 30
0.0
 11
60.7413437368
 21
204.5472012993
 31
0.0
  0
LINE
  5
48
330
44
100
AcDbEntity
  8
DEFAULT
  6
CENTER2
 62
     7
 48
25.4
100
AcDbLine
 10
54.7413436847
 20
212.0472012993
 30
0.0
 11
54.7413436847
 21
210.4222012993
 31
0.0
  0
LINE
  5
49
330
44
100
AcDbEntity
  8
DEFAULT
  6
CENTER2
 62
     7
 48
25.4
100
AcDbLine
 10
47.2413436847
 20
204.5472012993
 30
0.0
 11
48.8663436847
 21
204.5472012993
 31
0.0
  0
LINE
  5
4A
330
44
100
AcDbEntity
  8
DEFAULT
  6
CENTER2
 62
     7
 48
25.4
100
AcDbLine
 10
54.7413436847
 20
197.0472012993
 30
0.0
 11
54.7413436847
 21
198.6722012993
 31
0.0
  0
LINE
  5
4B
330
44
100
AcDbEntity
  8
DEFAULT
  6
CENTER2
 62
     7
 48
25.4
100
AcDbLine
 10
62.2413436847
 20
204.5472012993
 30
0.0
 11
60.6163436847
 21
204.5472012993
 31
0.0
  0
ENDBLK
  5
4D
330
44
100
AcDbEntity
  8
0
100
AcDbBlockEnd
  0
BLOCK
  5
56
330
4E
100
AcDbEntity
  8
0
100
AcDbBlockBegin
  2
SE5
 70
     0
 71
     0
 10
0.0
 20
0.0
 30
0.0
  3
SE5
  1

  0
LINE
  5
50
330
4E
100
AcDbEntity
  8
DEFAULT
  6
CENTER2
 62
     7
 48
25.4
100
AcDbLine
 10
97.7413436847
 20
210.5472013515
 30
0.0
 11
97.7413436847
 21
198.5472012472
 31
0.0
  0
LINE
  5
51
330
4E
100
AcDbEntity
  8
DEFAULT
  6
CENTER2
 62
     7
 48
25.4
100
AcDbLine
 10
91.7413436325
 20
204.5472012993
 30
0.0
 11
103.7413437368
 21
204.5472012993
 31
0.0
  0
LINE
  5
52
330
4E
100
AcDbEntity
  8
DEFAULT
  6
CENTER2
 62
     7
 48
25.4
100
AcDbLine
 10
97.7413436847
 20
212.0472012993
 30
0.0
 11
97.7413436847
 21
210.4222012993
 31
0.0
  0
LINE
  5
53
330
4E
100
AcDbEntity
  8
DEFAULT
  6
CENTER2
 62
     7
 48
25.4
100
AcDbLine
 10
90.2413436847
 20
204.5472012993
 30
0.0
 11
91.8663436847
 21
204.5472012993
 31
0.0
  0
LINE
  5
54
330
4E
100
AcDbEntity
  8
DEFAULT
  6
CENTER2
 62
     7
 48
25.4
100
AcDbLine
 10
97.7413436847
 20
197.0472012993
 30
0.0
 11
97.7413436847
 21
198.6722012993
 31
0.0
  0
LINE
  5
55
330
4E
100
AcDbEntity
  8
DEFAULT
  6
CENTER2
 62
     7
 48
25.4
100
AcDbLine
 10
105.2413436847
 20
204.5472012993
 30
0.0
 11
103.6163436847
 21
204.5472012993
 31
0.0
  0
ENDBLK
  5
57
330
4E
100
AcDbEntity
  8
0
100
AcDbBlockEnd
  0
BLOCK
  5
5B
330
58
100
AcDbEntity
  8
0
100
AcDbBlockBegin
  2
SE6
 70
     0
 71
     0
 10
0.0
 20
0.0
 30
0.0
  3
SE6
  1

  0
LINE
  5
5A
330
58
100
AcDbEntity
  8
DEFAULT
  6
CENTER2
 62
     7
 48
25.4
100
AcDbLine
 10
54.7413436847
 20
94.0531708615
 30
0.0
 11
54.7413436847
 21
108.1525400612
 31
0.0
  0
ENDBLK
  5
5C
330
58
100
AcDbEntity
  8
0
100
AcDbBlockEnd
  0
BLOCK
  5
60
330
5D
100
AcDbEntity
  8
0
100
AcDbBlockBegin
  2
SE7
 70
     0
 71
     0
 10
0.0
 20
0.0
 30
0.0
  3
SE7
  1

  0
LINE
  5
5F
330
5D
100
AcDbEntity
  8
DEFAULT
  6
CENTER2
 62
     7
 48
25.4
100
AcDbLine
 10
97.7413436847
 20
93.8413229833
 30
0.0
 11
97.7413436847
 21
108.0499042932
 31
0.0
  0
ENDBLK
  5
61
330
5D
100
AcDbEntity
  8
0
100
AcDbBlockEnd
  0
BLOCK
  5
162
330
62
100
AcDbEntity
  8
0
100
AcDbBlockBegin
  2
SE8
 70
     0
 71
     0
 10
0.0
 20
0.0
 30
0.0
  3
SE8
  1

  0
LINE
  5
65
330
62
100
AcDbEntity
  8
MEGA_002187
  6
CONTINUOUS
 62
     7
 48
25.4
100
AcDbLine
 10
74.1675356694
 20
51.0664134312
 30
0.0
 11
72.1200356694
 21
51.0664134312
 31
0.0
  0
LINE
  5
66
330
62
100
AcDbEntity
  8
MEGA_002187
  6
CONTINUOUS
 62
     7
 48
25.4
100
AcDbLine
 10
71.1298797841
 20
51.9364554712
 30
0.0
 11
71.1285392415
 21
51.936279525
 31
0.0
  0
ELLIPSE
  5
67
330
62
100
AcDbEntity
  8
MEGA_002187
  6
CONTINUOUS
 62
     7
 48
25.4
100
AcDbEllipse
 10
72.1200356694
 20
52.0664134312
 30
0.0
 11
-2.802612303176911E-13
 21
-0.99999999999998
 31
0.0
210
0.0
220
0.0
230
1.0
 40
0.9986247173
 41
4.842715560348422
 42
6.283185307179583
  0
LINE
  5
68
330
62
100
AcDbEntity
  8
MEGA_002187
  6
CONTINUOUS
 62
     7
 48
25.4
100
AcDbLine
 10
81.3528075853
 20
51.9364554712
 30
0.0
 11
81.3541481278
 21
51.936279525
 31
0.0
  0
LINE
  5
69
330
62
100
AcDbEntity
  8
MEGA_002187
  6
CONTINUOUS
 62
     7
 48
25.4
100
AcDbLine
 10
65.2413436847
 20
97.0664134312
 30
0.0
 11
69.1413436847
 21
67.0664134312
 31
0.0
  0
ELLIPSE
  5
6A
330
62
100
AcDbEntity
  8
MEGA_002187
  6
CONTINUOUS
 62
     7
 48
25.4
100
AcDbEllipse
 10
80.3626517
 20
52.0664134312
 30
0.0
 11
-6.487387696823089E-13
 21
0.99999999999998
 31
0.0
210
0.0
220
0.0
230
1.0
 40
0.9986247173
 41
3.141592653589143
 42
4.58206240042059
  0
ELLIPSE
  5
6B
330
62
100
AcDbEntity
  8
MEGA_002187
  6
CONTINUOUS
 62
     7
 48
25.4
100
AcDbEllipse
 10
74.1675356694
 20
52.0664134312
 30
0.0
 11
6.509387696823088E-13
 21
-0.9999999999999385
 31
0.0
210
0.0
220
0.0
230
1.0
 40
0.9986247173
 41
4.842715560347497
 42
6.283185307179575
  0
LINE
  5
6C
330
62
100
AcDbEntity
  8
MEGA_002187
  6
CONTINUOUS
 62
     7
 48
25.4
100
AcDbLine
 10
74.1675356694
 20
52.0664134312
 30
0.0
 11
73.1773797841
 21
51.9364554712
 31
0.0
  0
LINE
  5
6D
330
62
100
AcDbEntity
  8
MEGA_002187
  6
CONTINUOUS
 62
     7
 48
25.4
100
AcDbLine
 10
74.1675356694
 20
51.0664134312
 30
0.0
 11
74.1675356694
 21
52.0664134312
 31
0.0
  0
ELLIPSE
  5
6E
330
62
100
AcDbEntity
  8
MEGA_002187
  6
CONTINUOUS
 62
     7
 48
25.4
100
AcDbEllipse
 10
78.3151517
 20
52.0664134312
 30
0.0
 11
-4.414387696823089E-13
 21
0.99999999999998
 31
0.0
210
0.0
220
0.0
230
1.0
 40
0.9986247173
 41
3.141592653589351
 42
4.582062400420796
  0
LINE
  5
6F
330
62
100
AcDbEntity
  8
MEGA_002187
  6
CONTINUOUS
 62
     7
 48
25.4
100
AcDbLine
 10
72.3300356694
 20
66.0664134312
 30
0.0
 11
71.3398797841
 21
65.9364554712
 31
0.0
  0
LINE
  5
70
330
62
100
AcDbEntity
  8
MEGA_002187
  6
CONTINUOUS
 62
     7
 48
25.4
100
AcDbLine
 10
79.3053075853
 20
51.9364554712
 30
0.0
 11
78.3151517
 21
52.0664134312
 31
0.0
  0
LINE
  5
71
330
62
100
AcDbEntity
  8
MEGA_002187
  6
CONTINUOUS
 62
     7
 48
25.4
100
AcDbLine
 10
72.3300356694
 20
66.0664134312
 30
0.0
 11
72.3300356694
 21
67.0664134312
 31
0.0
  0
LINE
  5
72
330
62
100
AcDbEntity
  8
MEGA_002187
  6
CONTINUOUS
 62
     7
 48
25.4
100
AcDbLine
 10
78.3151517
 20
51.0664134312
 30
0.0
 11
78.3151517
 21
52.0664134312
 31
0.0
  0
LINE
  5
73
330
62
100
AcDbEntity
  8
MEGA_002187
  6
CONTINUOUS
 62
     7
 48
25.4
100
AcDbLine
 10
81.1428075853
 20
65.9364554712
 30
0.0
 11
80.1526517
 21
66.0664134312
 31
0.0
  0
LINE
  5
74
330
62
100
AcDbEntity
  8
MEGA_002187
  6
CONTINUOUS
 62
     7
 48
25.4
100
AcDbLine
 10
80.1526517
 20
66.0664134312
 30
0.0
 11
80.1526517
 21
67.0664134312
 31
0.0
  0
LINE
  5
75
330
62
100
AcDbEntity
  8
MEGA_002187
  6
CONTINUOUS
 62
     7
 48
25.4
100
AcDbLine
 10
83.3023125143
 20
67.0664134312
 30
0.0
 11
83.1780465267
 21
66.1231632245
 31
0.0
  0
LINE
  5
76
330
62
100
AcDbEntity
  8
MEGA_002187
  6
CONTINUOUS
 62
     7
 48
25.4
100
AcDbLine
 10
80.1526517
 20
67.0664134312
 30
0.0
 11
81.7292490988
 21
67.0664134312
 31
0.0
  0
SPLINE
  5
77
330
62
100
AcDbEntity
  8
MEGA_002187
  6
CONTINUOUS
 62
     7
 48
25.4
100
AcDbSpline
210
0.0
220
0.0
230
1.0
 70
     8
 71
     3
 72
    24
 73
    20
 74
     0
 42
0.0000000001
 43
0.0000000001
 40
0.0
 40
0.0
 40
0.0
 40
0.0
 40
0.0079090589403432
 40
0.0079090589403432
 40
0.0158181178806863
 40
0.0158181178806863
 40
0.0316362357613728
 40
0.0316362357613728
 40
0.0632724715227454
 40
0.0632724715227454
 40
0.1265449430454908
 40
0.1265449430454908
 40
0.2530898860909815
 40
0.2530898860909815
 40
0.5061797721819628
 40
0.5061797721819628
 40
0.7592696582729442
 40
0.7592696582729442
 40
0.9999999999999999
 40
0.9999999999999999
 40
0.9999999999999999
 40
0.9999999999999999
 10
83.14946204625645
 20
65.93645547123799
 30
0.0
 10
83.15246849055718
 20
65.95872310366985
 30
0.0
 10
83.15121953246843
 20
65.96524464449533
 30
0.0
 10
83.15045992010737
 20
65.98015635061371
 30
0.0
 10
83.14984182567692
 20
65.98612110871794
 30
0.0
 10
83.1477684830782
 20
66.00288934259518
 30
0.0
 10
83.14605327896513
 20
66.01229651786089
 30
0.0
 10
83.14052514414702
 20
66.03921434726112
 30
0.0
 10
83.13627507817753
 20
66.0551369215997
 30
0.0
 10
83.12251974870924
 20
66.10172209668203
 30
0.0
 10
83.11194755929222
 20
66.13076944142165
 30
0.0
 10
83.07673579617212
 20
66.21689303149569
 30
0.0
 10
83.04853156351591
 20
66.27243958430884
 30
0.0
 10
82.94973167259614
 20
66.43711200144247
 30
0.0
 10
82.8650244922092
 20
66.5439579067818
 30
0.0
 10
82.65098448230634
 20
66.74468913542924
 30
0.0
 10
82.52223073528525
 20
66.83918341613581
 30
0.0
 10
82.20492007726895
 20
66.99215804755771
 30
0.0
 10
82.02601136921223
 20
67.05951589526931
 30
0.0
 10
81.76939614803236
 20
67.06591683993207
 30
0.0
  0
SPLINE
  5
78
330
62
100
AcDbEntity
  8
MEGA_002187
  6
CONTINUOUS
 62
     7
 48
25.4
100
AcDbSpline
210
0.0
220
0.0
230
1.0
 70
     8
 71
     3
 72
     8
 73
     4
 74
     0
 42
0.0000000001
 43
0.0000000001
 40
0.0
 40
0.0
 40
0.0
 40
0.0
 40
1.0
 40
1.0
 40
1.0
 40
1.0
 10
81.76939614803236
 20
67.06591683993207
 30
0.0
 10
81.75622104435462
 20
67.0662454763597
 30
0.0
 10
81.74284110732191
 20
67.06641343118608
 30
0.0
 10
81.72924909883594
 20
67.06641343118602
 30
0.0
  0
ELLIPSE
  5
79
330
62
100
AcDbEntity
  8
MEGA_002187
  6
CONTINUOUS
 62
     7
 48
25.4
100
AcDbEllipse
 10
80.1526517
 20
66.0664134312
 30
0.0
 11
-7.023876968230888E-14
 21
1.000000000000014
 31
0.0
210
0.0
220
0.0
230
1.0
 40
0.9986247173
 41
4.582062400421114
 42
6.283185307179586
  0
LINE
  5
7A
330
62
100
AcDbEntity
  8
MEGA_002187
  6
CONTINUOUS
 62
     7
 48
25.4
100
AcDbLine
 10
69.1427091663
 20
67.0664134312
 30
0.0
 11
71.1285392415
 21
51.936279525
 31
0.0
  0
LINE
  5
7B
330
62
100
AcDbEntity
  8
MEGA_002187
  6
CONTINUOUS
 62
     7
 48
25.4
100
AcDbLine
 10
79.3053075853
 20
51.9364554712
 30
0.0
 11
81.3528075853
 21
51.9364554712
 31
0.0
  0
LINE
  5
7C
330
62
100
AcDbEntity
  8
MEGA_002187
  6
CONTINUOUS
 62
     7
 48
25.4
100
AcDbLine
 10
72.3300356694
 20
67.0664134312
 30
0.0
 11
80.1526517
 21
67.0664134312
 31
0.0
  0
LINE
  5
7D
330
62
100
AcDbEntity
  8
MEGA_002187
  6
CONTINUOUS
 62
     7
 48
25.4
100
AcDbLine
 10
69.1440728018
 20
67.0664134312
 30
0.0
 11
71.1298797841
 21
51.9364554712
 31
0.0
  0
LINE
  5
7E
330
62
100
AcDbEntity
  8
MEGA_002187
  6
CONTINUOUS
 62
     7
 48
25.4
100
AcDbLine
 10
71.1298797841
 20
51.9364554712
 30
0.0
 11
73.1773797841
 21
51.9364554712
 31
0.0
  0
LINE
  5
7F
330
62
100
AcDbEntity
  8
MEGA_002187
  6
CONTINUOUS
 62
     7
 48
25.4
100
AcDbLine
 10
73.1773797841
 20
51.9364554712
 30
0.0
 11
71.3398797841
 21
65.9364554712
 31
0.0
  0
ELLIPSE
  5
80
330
62
100
AcDbEntity
  8
MEGA_002187
  6
CONTINUOUS
 62
     7
 48
25.4
100
AcDbEllipse
 10
72.3300356694
 20
66.0664134312
 30
0.0
 11
2.089387696823089E-13
 21
-1.00000000000005
 31
0.0
210
0.0
220
0.0
230
1.0
 40
0.9986247173
 41
3.141592653589769
 42
4.842715560347982
  0
LINE
  5
81
330
62
100
AcDbEntity
  8
MEGA_002187
  6
CONTINUOUS
 62
     7
 48
25.4
100
AcDbLine
 10
78.3151517
 20
52.0664134312
 30
0.0
 11
80.1526517
 21
66.0664134312
 31
0.0
  0
LINE
  5
82
330
62
100
AcDbEntity
  8
MEGA_002187
  6
CONTINUOUS
 62
     7
 48
25.4
100
AcDbLine
 10
80.1526517
 20
66.0664134312
 30
0.0
 11
72.3300356694
 21
66.0664134312
 31
0.0
  0
LINE
  5
83
330
62
100
AcDbEntity
  8
MEGA_002187
  6
CONTINUOUS
 62
     7
 48
25.4
100
AcDbLine
 10
72.3300356694
 20
66.0664134312
 30
0.0
 11
74.1675356694
 21
52.0664134312
 31
0.0
  0
LINE
  5
84
330
62
100
AcDbEntity
  8
MEGA_002187
  6
CONTINUOUS
 62
     7
 48
25.4
100
AcDbLine
 10
80.3626517
 20
51.0664134312
 30
0.0
 11
78.3151517
 21
51.0664134312
 31
0.0
  0
LINE
  5
85
330
62
100
AcDbEntity
  8
MEGA_002187
  6
CONTINUOUS
 62
     7
 48
25.4
100
AcDbLine
 10
78.3151517
 20
51.0664134312
 30
0.0
 11
74.1675356694
 21
51.0664134312
 31
0.0
  0
LINE
  5
86
330
62
100
AcDbEntity
  8
MEGA_002187
  6
CONTINUOUS
 62
     7
 48
25.4
100
AcDbLine
 10
81.3528075853
 20
51.9364554712
 30
0.0
 11
83.3386145675
 21
67.0664134312
 31
0.0
  0
LINE
  5
87
330
62
100
AcDbEntity
  8
MEGA_002187
  6
CONTINUOUS
 62
     7
 48
25.4
100
AcDbLine
 10
81.1428075853
 20
65.9364554712
 30
0.0
 11
79.3053075853
 21
51.9364554712
 31
0.0
  0
LINE
  5
88
330
62
100
AcDbEntity
  8
MEGA_002187
  6
CONTINUOUS
 62
     7
 48
25.4
100
AcDbLine
 10
71.3398797841
 20
65.9364554712
 30
0.0
 11
69.3332253231
 21
65.9364554712
 31
0.0
  0
LINE
  5
89
330
62
100
AcDbEntity
  8
MEGA_002187
  6
CONTINUOUS
 62
     7
 48
25.4
100
AcDbLine
 10
70.7534382705
 20
67.0664134312
 30
0.0
 11
72.3300356694
 21
67.0664134312
 31
0.0
  0
SPLINE
  5
8A
330
62
100
AcDbEntity
  8
MEGA_002187
  6
CONTINUOUS
 62
     7
 48
25.4
100
AcDbSpline
210
0.0
220
0.0
230
1.0
 70
     8
 71
     3
 72
     8
 73
     4
 74
     0
 42
0.0000000001
 43
0.0000000001
 40
0.0
 40
0.0
 40
0.0
 40
0.0
 40
0.9999999999999999
 40
0.9999999999999999
 40
0.9999999999999999
 40
0.9999999999999999
 10
70.75343827052838
 20
67.06641343118602
 30
0.0
 10
70.7450775511208
 20
67.06641343118602
 30
0.0
 10
70.73679425452056
 20
67.06634893009061
 30
0.0
 10
70.72858680196987
 20
67.06622163482079
 30
0.0
  0
SPLINE
  5
8B
330
62
100
AcDbEntity
  8
MEGA_002187
  6
CONTINUOUS
 62
     7
 48
25.4
100
AcDbSpline
210
0.0
220
0.0
230
1.0
 70
     8
 71
     3
 72
    24
 73
    20
 74
     0
 42
0.0000000001
 43
0.0000000001
 40
0.0
 40
0.0
 40
0.0
 40
0.0
 40
0.2442537682434299
 40
0.2442537682434299
 40
0.4961691788289532
 40
0.4961691788289532
 40
0.7480845894144765
 40
0.7480845894144765
 40
0.8740422947072383
 40
0.8740422947072383
 40
0.937021147353619
 40
0.937021147353619
 40
0.9685105736768094
 40
0.9685105736768094
 40
0.9842552868384047
 40
0.9842552868384047
 40
0.9921276434192023
 40
0.9921276434192023
 40
0.9999999999999999
 40
0.9999999999999999
 40
0.9999999999999999
 40
0.9999999999999999
 10
70.72858680196987
 20
67.06622163482079
 30
0.0
 10
70.46693256079378
 20
67.06216345147841
 30
0.0
 10
70.28236162149057
 20
66.99428506956944
 30
0.0
 10
69.96010356134849
 20
66.8391034915069
 30
0.0
 10
69.83117454167962
 20
66.744289723066
 30
0.0
 10
69.61709398496174
 20
66.54332781305166
 30
0.0
 10
69.53261463854571
 20
66.4366300843145
 30
0.0
 10
69.43396305465812
 20
66.27207481453984
 30
0.0
 10
69.40579977001252
 20
66.21656634836404
 30
0.0
 10
69.3706471533996
 20
66.13052034971683
 30
0.0
 10
69.36009540251956
 20
66.10150734349874
 30
0.0
 10
69.3463644639989
 20
66.05495989415455
 30
0.0
 10
69.34212117475951
 20
66.03904592752275
 30
0.0
 10
69.33660585553825
 20
66.01214309357067
 30
0.0
 10
69.33489637687903
 20
66.00275203510097
 30
0.0
 10
69.33282931817938
 20
65.98596706725979
 30
0.0
 10
69.33221304794459
 20
65.97998601164079
 30
0.0
 10
69.33146411749536
 20
65.96505653143848
 30
0.0
 10
69.33026099153719
 20
65.95841119009377
 30
0.0
 10
69.3332253231079
 20
65.93645547123799
 30
0.0
  0
LINE
  5
8C
330
62
100
AcDbEntity
  8
MEGA_002187
  6
CONTINUOUS
 62
     7
 48
25.4
100
AcDbLine
 10
69.3046408426
 20
66.1231632245
 30
0.0
 11
69.180374855
 21
67.0664134312
 31
0.0
  0
ARC
  5
8D
330
62
100
AcDbEntity
  8
MEGA_002187
  6
CONTINUOUS
 62
     7
 48
25.4
100
AcDbCircle
 10
80.0864389641
 20
66.5009384688
 30
0.0
 40
3.114602937200004
100
AcDbArc
 50
349.5581482602
 51
353.0333483498
  0
ARC
  5
8E
330
62
100
AcDbEntity
  8
MEGA_002187
  6
CONTINUOUS
 62
     7
 48
25.4
100
AcDbCircle
 10
72.3962484075
 20
66.5009384692
 30
0.0
 40
3.114602939500003
100
AcDbArc
 50
186.9666516515
 51
190.4418517385
  0
LINE
  5
8F
330
62
100
AcDbEntity
  8
MEGA_002187
  6
CONTINUOUS
 62
     7
 48
25.4
100
AcDbLine
 10
72.3060733798
 20
70.4531591219
 30
0.0
 11
80.1766139895
 21
70.4531591219
 31
0.0
  0
LINE
  5
90
330
62
100
AcDbEntity
  8
MEGA_002187
  6
CONTINUOUS
 62
     7
 48
25.4
100
AcDbLine
 10
83.1494620463
 20
65.9364554712
 30
0.0
 11
81.1428075853
 21
65.9364554712
 31
0.0
  0
LINE
  5
91
330
62
100
AcDbEntity
  8
MEGA_002187
  6
CONTINUOUS
 62
     7
 48
25.4
100
AcDbLine
 10
81.3541481278
 20
51.936279525
 30
0.0
 11
83.339978203
 21
67.0664134312
 31
0.0
  0
LINE
  5
93
330
62
100
AcDbEntity
  8
MEGA_002187
  6
HIDDEN2
 62
     7
 48
25.4
100
AcDbLine
 10
69.180374855
 20
67.0664134312
 30
0.0
 11
69.3046408427
 21
66.1231632245
 31
0.0
  0
ARC
  5
94
330
62
100
AcDbEntity
  8
MEGA_002187
  6
CONTINUOUS
 62
     7
 48
25.4
100
AcDbCircle
 10
80.3626517
 20
52.0664134312
 30
0.0
 40
1.0
100
AcDbArc
 50
270.0
 51
352.5226696933
  0
LINE
  5
95
330
62
100
AcDbEntity
  8
MEGA_002187
  6
HIDDEN2
 62
     7
 48
25.4
100
AcDbLine
 10
83.1780465267
 20
66.1231632245
 30
0.0
 11
83.3023125143
 21
67.0664134312
 31
0.0
  0
LINE
  5
96
330
62
100
AcDbEntity
  8
MEGA_002187
  6
CONTINUOUS
 62
     7
 48
25.4
100
AcDbLine
 10
74.1675356694
 20
52.0664134312
 30
0.0
 11
78.3151517
 21
52.0664134312
 31
0.0
  0
LINE
  5
97
330
62
100
AcDbEntity
  8
MEGA_002187
  6
CONTINUOUS
 62
     7
 48
25.4
100
AcDbLine
 10
69.180374855
 20
67.0664134312
 30
0.0
 11
69.1413436847
 21
67.0664134312
 31
0.0
  0
LINE
  5
98
330
62
100
AcDbEntity
  8
MEGA_002187
  6
CONTINUOUS
 62
     7
 48
25.4
100
AcDbLine
 10
83.3413436847
 20
67.0664134312
 30
0.0
 11
83.3023125143
 21
67.0664134312
 31
0.0
  0
LINE
  5
99
330
62
100
AcDbEntity
  8
MEGA_002187
  6
CONTINUOUS
 62
     7
 48
25.4
100
AcDbLine
 10
87.2413436847
 20
97.0664134312
 30
0.0
 11
65.2413436847
 21
97.0664134312
 31
0.0
  0
ARC
  5
9A
330
62
100
AcDbEntity
  8
MEGA_002187
  6
CONTINUOUS
 62
     7
 48
25.4
100
AcDbCircle
 10
72.1200356694
 20
52.0664134312
 30
0.0
 40
1.0
100
AcDbArc
 50
187.4773303067
 51
270.0
  0
LINE
  5
9B
330
62
100
AcDbEntity
  8
MEGA_002187
  6
HIDDEN2
 62
     7
 48
25.4
100
AcDbLine
 10
72.7413436847
 20
69.2664134312
 30
0.0
 11
72.7413436847
 21
104.2664134312
 31
0.0
  0
LINE
  5
9C
330
62
100
AcDbEntity
  8
MEGA_002187
  6
HIDDEN2
 62
     7
 48
25.4
100
AcDbLine
 10
72.7413436847
 20
69.2664134312
 30
0.0
 11
79.7413436847
 21
69.2664134312
 31
0.0
  0
LINE
  5
9D
330
62
100
AcDbEntity
  8
MEGA_002187
  6
HIDDEN2
 62
     7
 48
25.4
100
AcDbLine
 10
79.7413436847
 20
69.2664134312
 30
0.0
 11
79.7413436847
 21
104.2664134312
 31
0.0
  0
LINE
  5
9E
330
62
100
AcDbEntity
  8
MEGA_002187
  6
CONTINUOUS
 62
     7
 48
25.4
100
AcDbLine
 10
83.3413436847
 20
67.0664134312
 30
0.0
 11
87.2413436847
 21
97.0664134312
 31
0.0
  0
LINE
  5
A0
330
62
100
AcDbEntity
  8
MEGA_001982
  6
CONTINUOUS
 62
     7
 48
25.4
100
AcDbLine
 10
76.2413436847
 20
104.5664134312
 30
0.0
 11
45.2413436847
 21
104.5664134312
 31
0.0
  0
LINE
  5
A1
330
62
100
AcDbEntity
  8
MEGA_001982
  6
CONTINUOUS
 62
     7
 48
25.4
100
AcDbLine
 10
87.2413436847
 20
97.5664134312
 30
0.0
 11
65.2413436847
 21
97.5664134312
 31
0.0
  0
LINE
  5
A2
330
62
100
AcDbEntity
  8
MEGA_001982
  6
HIDDEN2
 62
     7
 48
25.4
100
AcDbLine
 10
93.6163436847
 20
100.0664134312
 30
0.0
 11
101.8663436847
 21
100.0664134312
 31
0.0
  0
LINE
  5
A3
330
62
100
AcDbEntity
  8
MEGA_001982
  6
HIDDEN2
 62
     7
 48
25.4
100
AcDbLine
 10
83.7413436847
 20
97.5664134312
 30
0.0
 11
68.7413436847
 21
97.5664134312
 31
0.0
  0
LINE
  5
A4
330
62
100
AcDbEntity
  8
MEGA_001982
  6
HIDDEN2
 62
     7
 48
25.4
100
AcDbLine
 10
105.0315632488
 20
101.5664134312
 30
0.0
 11
105.2413436847
 21
104.5664134312
 31
0.0
  0
LINE
  5
A5
330
62
100
AcDbEntity
  8
MEGA_001982
  6
HIDDEN2
 62
     7
 48
25.4
100
AcDbLine
 10
105.0315632488
 20
101.5664134312
 30
0.0
 11
76.2413436847
 21
101.5664134312
 31
0.0
  0
LINE
  5
A6
330
62
100
AcDbEntity
  8
MEGA_001982
  6
HIDDEN2
 62
     7
 48
25.4
100
AcDbLine
 10
76.2413436847
 20
101.5664134312
 30
0.0
 11
47.4511241205
 21
101.5664134312
 31
0.0
  0
LINE
  5
A7
330
62
100
AcDbEntity
  8
MEGA_001982
  6
HIDDEN2
 62
     7
 48
25.4
100
AcDbLine
 10
59.4780456069
 20
101.7664134312
 30
0.0
 11
59.3095514608
 21
101.7664134312
 31
0.0
  0
LINE
  5
A8
330
62
100
AcDbEntity
  8
MEGA_001982
  6
HIDDEN2
 62
     7
 48
25.4
100
AcDbLine
 10
57.995833272
 20
101.7664134312
 30
0.0
 11
57.7274818062
 21
101.7664134312
 31
0.0
  0
LINE
  5
A9
330
62
100
AcDbEntity
  8
MEGA_001982
  6
HIDDEN2
 62
     7
 48
25.4
100
AcDbLine
 10
57.7274818062
 20
101.7664134312
 30
0.0
 11
57.5550650665
 21
101.7664134312
 31
0.0
  0
LINE
  5
AA
330
62
100
AcDbEntity
  8
MEGA_001982
  6
HIDDEN2
 62
     7
 48
25.4
100
AcDbLine
 10
58.122341527
 20
101.7664134312
 30
0.0
 11
58.122341527
 21
101.5664134312
 31
0.0
  0
LINE
  5
AB
330
62
100
AcDbEntity
  8
MEGA_001982
  6
HIDDEN2
 62
     7
 48
25.4
100
AcDbLine
 10
58.5272800157
 20
101.7664134312
 30
0.0
 11
58.5272800157
 21
101.5664134312
 31
0.0
  0
LINE
  5
AC
330
62
100
AcDbEntity
  8
MEGA_001982
  6
HIDDEN2
 62
     7
 48
25.4
100
AcDbLine
 10
57.7226731804
 20
101.7664134312
 30
0.0
 11
57.7226731804
 21
101.5664134312
 31
0.0
  0
LINE
  5
AD
330
62
100
AcDbEntity
  8
MEGA_001982
  6
HIDDEN2
 62
     7
 48
25.4
100
AcDbLine
 10
57.9784996605
 20
101.7664134312
 30
0.0
 11
57.9784996605
 21
101.5664134312
 31
0.0
  0
LINE
  5
AE
330
62
100
AcDbEntity
  8
MEGA_001982
  6
HIDDEN2
 62
     7
 48
25.4
100
AcDbLine
 10
57.7804421308
 20
101.7664134312
 30
0.0
 11
57.7804421308
 21
101.5664134312
 31
0.0
  0
LINE
  5
AF
330
62
100
AcDbEntity
  8
MEGA_001982
  6
HIDDEN2
 62
     7
 48
25.4
100
AcDbLine
 10
59.4780456069
 20
101.7664134312
 30
0.0
 11
59.4780456069
 21
101.5664134312
 31
0.0
  0
LINE
  5
B0
330
62
100
AcDbEntity
  8
MEGA_001982
  6
HIDDEN2
 62
     7
 48
25.4
100
AcDbLine
 10
57.2104357931
 20
101.7664134312
 30
0.0
 11
57.2104357931
 21
101.5664134312
 31
0.0
  0
LINE
  5
B1
330
62
100
AcDbEntity
  8
MEGA_001982
  6
HIDDEN2
 62
     7
 48
25.4
100
AcDbLine
 10
59.1291825586
 20
101.7664134312
 30
0.0
 11
59.1291825586
 21
101.5664134312
 31
0.0
  0
LINE
  5
B2
330
62
100
AcDbEntity
  8
MEGA_001982
  6
HIDDEN2
 62
     7
 48
25.4
100
AcDbLine
 10
58.6656863146
 20
101.7664134312
 30
0.0
 11
58.6656863146
 21
101.5664134312
 31
0.0
  0
LINE
  5
B3
330
62
100
AcDbEntity
  8
MEGA_001982
  6
HIDDEN2
 62
     7
 48
25.4
100
AcDbLine
 10
57.7274818062
 20
101.7664134312
 30
0.0
 11
57.7274818062
 21
101.5664134312
 31
0.0
  0
LINE
  5
B4
330
62
100
AcDbEntity
  8
MEGA_001982
  6
HIDDEN2
 62
     7
 48
25.4
100
AcDbLine
 10
57.5550650665
 20
101.7664134312
 30
0.0
 11
57.5550650665
 21
101.5664134312
 31
0.0
  0
LINE
  5
B5
330
62
100
AcDbEntity
  8
MEGA_001982
  6
HIDDEN2
 62
     7
 48
25.4
100
AcDbLine
 10
56.2974709233
 20
101.7664134312
 30
0.0
 11
55.8455305794
 21
101.7664134312
 31
0.0
  0
LINE
  5
B6
330
62
100
AcDbEntity
  8
MEGA_001982
  6
HIDDEN2
 62
     7
 48
25.4
100
AcDbLine
 10
54.6717705636
 20
101.7664134312
 30
0.0
 11
54.619442616
 21
101.7664134312
 31
0.0
  0
LINE
  5
B7
330
62
100
AcDbEntity
  8
MEGA_001982
  6
HIDDEN2
 62
     7
 48
25.4
100
AcDbLine
 10
57.2418658433
 20
101.6908912725
 30
0.0
 11
52.2408215261
 21
101.6908912725
 31
0.0
  0
LINE
  5
B8
330
62
100
AcDbEntity
  8
MEGA_001982
  6
CONTINUOUS
 62
     7
 48
25.4
100
AcDbLine
 10
87.2413436847
 20
97.0664134312
 30
0.0
 11
65.2413436847
 21
97.0664134312
 31
0.0
  0
LINE
  5
B9
330
62
100
AcDbEntity
  8
MEGA_001982
  6
CONTINUOUS
 62
     7
 48
25.4
100
AcDbLine
 10
106.891709625
 20
99.5664134312
 30
0.0
 11
107.2413436847
 21
104.5664134312
 31
0.0
  0
LINE
  5
BA
330
62
100
AcDbEntity
  8
MEGA_001982
  6
HIDDEN2
 62
     7
 48
25.4
100
AcDbLine
 10
58.8663436847
 20
100.0664134312
 30
0.0
 11
50.6163436847
 21
100.0664134312
 31
0.0
  0
LINE
  5
BB
330
62
100
AcDbEntity
  8
MEGA_001982
  6
CONTINUOUS
 62
     7
 48
25.4
100
AcDbLine
 10
45.5909777444
 20
99.5664134312
 30
0.0
 11
45.2413436847
 21
104.5664134312
 31
0.0
  0
LINE
  5
BC
330
62
100
AcDbEntity
  8
MEGA_001982
  6
CONTINUOUS
 62
     7
 48
25.4
100
AcDbLine
 10
76.2413436847
 20
99.5664134312
 30
0.0
 11
76.2413436847
 21
104.5664134312
 31
0.0
  0
LINE
  5
BD
330
62
100
AcDbEntity
  8
MEGA_001982
  6
CONTINUOUS
 62
     7
 48
25.4
100
AcDbLine
 10
107.2413436847
 20
104.5664134312
 30
0.0
 11
76.2413436847
 21
104.5664134312
 31
0.0
  0
LINE
  5
BE
330
62
100
AcDbEntity
  8
MEGA_001982
  6
CONTINUOUS
 62
     7
 48
25.4
100
AcDbLine
 10
106.891709625
 20
99.5664134312
 30
0.0
 11
76.2413436847
 21
99.5664134312
 31
0.0
  0
LINE
  5
BF
330
62
100
AcDbEntity
  8
MEGA_001982
  6
HIDDEN2
 62
     7
 48
25.4
100
AcDbLine
 10
47.4511241205
 20
101.5664134312
 30
0.0
 11
47.2413436847
 21
104.5664134312
 31
0.0
  0
LINE
  5
C0
330
62
100
AcDbEntity
  8
MEGA_001982
  6
CONTINUOUS
 62
     7
 48
25.4
100
AcDbLine
 10
76.2413436847
 20
99.5664134312
 30
0.0
 11
45.5909777444
 21
99.5664134312
 31
0.0
  0
LINE
  5
C1
330
62
100
AcDbEntity
  8
MEGA_001982
  6
HIDDEN2
 62
     7
 48
25.4
100
AcDbLine
 10
58.5008347499
 20
101.7664134312
 30
0.0
 11
58.5008347499
 21
101.5664134312
 31
0.0
  0
LINE
  5
C2
330
62
100
AcDbEntity
  8
MEGA_001982
  6
HIDDEN2
 62
     7
 48
25.4
100
AcDbLine
 10
58.35190465
 20
101.7664134312
 30
0.0
 11
58.35190465
 21
101.5664134312
 31
0.0
  0
LINE
  5
C3
330
62
100
AcDbEntity
  8
MEGA_001982
  6
HIDDEN2
 62
     7
 48
25.4
100
AcDbLine
 10
58.9499075031
 20
101.7664134312
 30
0.0
 11
58.9499075031
 21
101.5664134312
 31
0.0
  0
LINE
  5
C4
330
62
100
AcDbEntity
  8
MEGA_001982
  6
HIDDEN2
 62
     7
 48
25.4
100
AcDbLine
 10
58.1761557199
 20
101.7664134312
 30
0.0
 11
58.1761557199
 21
101.5664134312
 31
0.0
  0
LINE
  5
C5
330
62
100
AcDbEntity
  8
MEGA_001982
  6
HIDDEN2
 62
     7
 48
25.4
100
AcDbLine
 10
59.1210915259
 20
101.7664134312
 30
0.0
 11
59.1210915259
 21
101.5664134312
 31
0.0
  0
LINE
  5
C6
330
62
100
AcDbEntity
  8
MEGA_001982
  6
HIDDEN2
 62
     7
 48
25.4
100
AcDbLine
 10
56.8232313262
 20
101.7664134312
 30
0.0
 11
56.8232313262
 21
101.5664134312
 31
0.0
  0
LINE
  5
C7
330
62
100
AcDbEntity
  8
MEGA_001982
  6
HIDDEN2
 62
     7
 48
25.4
100
AcDbLine
 10
57.1119617114
 20
101.7664134312
 30
0.0
 11
57.1119617114
 21
101.5664134312
 31
0.0
  0
LINE
  5
C8
330
62
100
AcDbEntity
  8
MEGA_001982
  6
HIDDEN2
 62
     7
 48
25.4
100
AcDbLine
 10
56.8249431664
 20
101.7664134312
 30
0.0
 11
56.8249431664
 21
101.5664134312
 31
0.0
  0
LINE
  5
C9
330
62
100
AcDbEntity
  8
MEGA_001982
  6
HIDDEN2
 62
     7
 48
25.4
100
AcDbLine
 10
57.6078247641
 20
101.7664134312
 30
0.0
 11
56.5031172035
 21
101.7664134312
 31
0.0
  0
LINE
  5
CA
330
62
100
AcDbEntity
  8
MEGA_001982
  6
HIDDEN2
 62
     7
 48
25.4
100
AcDbLine
 10
56.5031172035
 20
101.7664134312
 30
0.0
 11
56.3382099282
 21
101.7664134312
 31
0.0
  0
LINE
  5
CB
330
62
100
AcDbEntity
  8
MEGA_001982
  6
HIDDEN2
 62
     7
 48
25.4
100
AcDbLine
 10
56.6743012263
 20
101.7664134312
 30
0.0
 11
56.6743012263
 21
101.5664134312
 31
0.0
  0
LINE
  5
CC
330
62
100
AcDbEntity
  8
MEGA_001982
  6
HIDDEN2
 62
     7
 48
25.4
100
AcDbLine
 10
57.2723040794
 20
101.7664134312
 30
0.0
 11
57.2723040794
 21
101.5664134312
 31
0.0
  0
LINE
  5
CD
330
62
100
AcDbEntity
  8
MEGA_001982
  6
HIDDEN2
 62
     7
 48
25.4
100
AcDbLine
 10
56.4985522962
 20
101.7664134312
 30
0.0
 11
56.4985522962
 21
101.5664134312
 31
0.0
  0
LINE
  5
CE
330
62
100
AcDbEntity
  8
MEGA_001982
  6
HIDDEN2
 62
     7
 48
25.4
100
AcDbLine
 10
57.4434881022
 20
101.7664134312
 30
0.0
 11
57.4434881022
 21
101.5664134312
 31
0.0
  0
LINE
  5
CF
330
62
100
AcDbEntity
  8
MEGA_001982
  6
HIDDEN2
 62
     7
 48
25.4
100
AcDbLine
 10
55.806968844
 20
101.7664134312
 30
0.0
 11
55.6095366044
 21
101.7664134312
 31
0.0
  0
LINE
  5
D0
330
62
100
AcDbEntity
  8
MEGA_001982
  6
HIDDEN2
 62
     7
 48
25.4
100
AcDbLine
 10
53.4925608554
 20
101.7664134312
 30
0.0
 11
53.4925608554
 21
101.5664134312
 31
0.0
  0
LINE
  5
D1
330
62
100
AcDbEntity
  8
MEGA_001982
  6
HIDDEN2
 62
     7
 48
25.4
100
AcDbLine
 10
53.7327891008
 20
101.7664134312
 30
0.0
 11
53.4937020823
 21
101.7664134312
 31
0.0
  0
LINE
  5
D2
330
62
100
AcDbEntity
  8
MEGA_001982
  6
HIDDEN2
 62
     7
 48
25.4
100
AcDbLine
 10
51.7904210551
 20
101.7664134312
 30
0.0
 11
51.7904210551
 21
101.5664134312
 31
0.0
  0
LINE
  5
D3
330
62
100
AcDbEntity
  8
MEGA_001982
  6
HIDDEN2
 62
     7
 48
25.4
100
AcDbLine
 10
51.6414909553
 20
101.7664134312
 30
0.0
 11
51.6414909553
 21
101.5664134312
 31
0.0
  0
LINE
  5
D4
330
62
100
AcDbEntity
  8
MEGA_001982
  6
HIDDEN2
 62
     7
 48
25.4
100
AcDbLine
 10
52.2394938084
 20
101.7664134312
 30
0.0
 11
52.2394938084
 21
101.5664134312
 31
0.0
  0
LINE
  5
D5
330
62
100
AcDbEntity
  8
MEGA_001982
  6
HIDDEN2
 62
     7
 48
25.4
100
AcDbLine
 10
51.4657420252
 20
101.7664134312
 30
0.0
 11
51.4657420252
 21
101.5664134312
 31
0.0
  0
LINE
  5
D6
330
62
100
AcDbEntity
  8
MEGA_001982
  6
HIDDEN2
 62
     7
 48
25.4
100
AcDbLine
 10
52.4106778312
 20
101.7664134312
 30
0.0
 11
52.4106778312
 21
101.5664134312
 31
0.0
  0
LINE
  5
D7
330
62
100
AcDbEntity
  8
MEGA_001982
  6
HIDDEN2
 62
     7
 48
25.4
100
AcDbLine
 10
50.8917049353
 20
101.7664134312
 30
0.0
 11
50.654329757
 21
101.7664134312
 31
0.0
  0
LINE
  5
D8
330
62
100
AcDbEntity
  8
MEGA_001982
  6
HIDDEN2
 62
     7
 48
25.4
100
AcDbLine
 10
50.4306493005
 20
101.7664134312
 30
0.0
 11
49.5924182021
 21
101.7664134312
 31
0.0
  0
LINE
  5
D9
330
62
100
AcDbEntity
  8
MEGA_001982
  6
HIDDEN2
 62
     7
 48
25.4
100
AcDbLine
 10
50.654329757
 20
101.7664134312
 30
0.0
 11
50.4306493005
 21
101.7664134312
 31
0.0
  0
LINE
  5
DA
330
62
100
AcDbEntity
  8
MEGA_001982
  6
HIDDEN2
 62
     7
 48
25.4
100
AcDbLine
 10
49.8189517256
 20
101.7664134312
 30
0.0
 11
49.8189517256
 21
101.5664134312
 31
0.0
  0
LINE
  5
DB
330
62
100
AcDbEntity
  8
MEGA_001982
  6
HIDDEN2
 62
     7
 48
25.4
100
AcDbLine
 10
93.8461059932
 20
104.5664134312
 30
0.0
 11
93.7413436847
 21
101.5664134312
 31
0.0
  0
LINE
  5
DC
330
62
100
AcDbEntity
  8
MEGA_001982
  6
HIDDEN2
 62
     7
 48
25.4
100
AcDbLine
 10
50.3524752634
 20
101.7664134312
 30
0.0
 11
50.3524752634
 21
101.5664134312
 31
0.0
  0
LINE
  5
DD
330
62
100
AcDbEntity
  8
MEGA_001982
  6
HIDDEN2
 62
     7
 48
25.4
100
AcDbLine
 10
50.8917049353
 20
101.7664134312
 30
0.0
 11
50.8917049353
 21
101.5664134312
 31
0.0
  0
LINE
  5
DE
330
62
100
AcDbEntity
  8
MEGA_001982
  6
HIDDEN2
 62
     7
 48
25.4
100
AcDbLine
 10
49.5924182021
 20
101.7664134312
 30
0.0
 11
49.5924182021
 21
101.5664134312
 31
0.0
  0
LINE
  5
DF
330
62
100
AcDbEntity
  8
MEGA_001982
  6
HIDDEN2
 62
     7
 48
25.4
100
AcDbLine
 10
50.4306493005
 20
101.7664134312
 30
0.0
 11
50.4306493005
 21
101.5664134312
 31
0.0
  0
LINE
  5
E0
330
62
100
AcDbEntity
  8
MEGA_001982
  6
HIDDEN2
 62
     7
 48
25.4
100
AcDbLine
 10
50.654329757
 20
101.7664134312
 30
0.0
 11
50.654329757
 21
101.5664134312
 31
0.0
  0
LINE
  5
E1
330
62
100
AcDbEntity
  8
MEGA_001982
  6
HIDDEN2
 62
     7
 48
25.4
100
AcDbLine
 10
50.8461059932
 20
104.5664134312
 30
0.0
 11
50.7413436847
 21
101.5664134312
 31
0.0
  0
LINE
  5
E2
330
62
100
AcDbEntity
  8
MEGA_001982
  6
HIDDEN2
 62
     7
 48
25.4
100
AcDbLine
 10
50.6163436847
 20
100.0664134312
 30
0.0
 11
50.6163436847
 21
99.5664134312
 31
0.0
  0
LINE
  5
E3
330
62
100
AcDbEntity
  8
MEGA_001982
  6
HIDDEN2
 62
     7
 48
25.4
100
AcDbLine
 10
52.2408215261
 20
101.6908912725
 30
0.0
 11
50.6163436847
 21
100.0664134312
 31
0.0
  0
LINE
  5
E4
330
62
100
AcDbEntity
  8
MEGA_001982
  6
HIDDEN2
 62
     7
 48
25.4
100
AcDbLine
 10
58.1807206272
 20
101.7664134312
 30
0.0
 11
58.0158133519
 21
101.7664134312
 31
0.0
  0
LINE
  5
E5
330
62
100
AcDbEntity
  8
MEGA_001982
  6
HIDDEN2
 62
     7
 48
25.4
100
AcDbLine
 10
59.2854281878
 20
101.7664134312
 30
0.0
 11
58.1807206272
 21
101.7664134312
 31
0.0
  0
LINE
  5
E6
330
62
100
AcDbEntity
  8
MEGA_001982
  6
HIDDEN2
 62
     7
 48
25.4
100
AcDbLine
 10
95.3413436847
 20
104.5664134312
 30
0.0
 11
95.2408215261
 21
101.6908912725
 31
0.0
  0
ARC
  5
E7
330
62
100
AcDbEntity
  8
MEGA_001982
  6
CONTINUOUS
 62
     7
 48
25.4
100
AcDbCircle
 10
63.2413436847
 20
97.5664134312
 30
0.0
 40
2.0
100
AcDbArc
 50
0.0
 51
90.0
  0
LINE
  5
E8
330
62
100
AcDbEntity
  8
MEGA_001982
  6
HIDDEN2
 62
     7
 48
25.4
100
AcDbLine
 10
95.2408215261
 20
101.6908912725
 30
0.0
 11
93.6163436847
 21
100.0664134312
 31
0.0
  0
LINE
  5
E9
330
62
100
AcDbEntity
  8
MEGA_001982
  6
HIDDEN2
 62
     7
 48
25.4
100
AcDbLine
 10
93.6163436847
 20
100.0664134312
 30
0.0
 11
93.6163436847
 21
99.5664134312
 31
0.0
  0
LINE
  5
EA
330
62
100
AcDbEntity
  8
MEGA_001982
  6
HIDDEN2
 62
     7
 48
25.4
100
AcDbLine
 10
68.7413436847
 20
101.0664134312
 30
0.0
 11
68.7413436847
 21
97.5664134312
 31
0.0
  0
LINE
  5
EB
330
62
100
AcDbEntity
  8
MEGA_001982
  6
HIDDEN2
 62
     7
 48
25.4
100
AcDbLine
 10
68.7413436847
 20
97.5664134312
 30
0.0
 11
68.2413436847
 21
97.0664134312
 31
0.0
  0
LINE
  5
EC
330
62
100
AcDbEntity
  8
MEGA_001982
  6
HIDDEN2
 62
     7
 48
25.4
100
AcDbLine
 10
86.2413436847
 20
101.0664134312
 30
0.0
 11
86.5300188193
 21
101.5664134312
 31
0.0
  0
LINE
  5
ED
330
62
100
AcDbEntity
  8
MEGA_001982
  6
CONTINUOUS
 62
     7
 48
25.4
100
AcDbLine
 10
87.2413436847
 20
97.0664134312
 30
0.0
 11
87.2413436847
 21
97.5664134312
 31
0.0
  0
LINE
  5
EE
330
62
100
AcDbEntity
  8
MEGA_001982
  6
HIDDEN2
 62
     7
 48
25.4
100
AcDbLine
 10
52.3413436847
 20
104.5664134312
 30
0.0
 11
52.2408215261
 21
101.6908912725
 31
0.0
  0
LINE
  5
EF
330
62
100
AcDbEntity
  8
MEGA_001982
  6
HIDDEN2
 62
     7
 48
25.4
100
AcDbLine
 10
86.2413436847
 20
101.0664134312
 30
0.0
 11
66.2413436847
 21
101.0664134312
 31
0.0
  0
LINE
  5
F0
330
62
100
AcDbEntity
  8
MEGA_001982
  6
HIDDEN2
 62
     7
 48
25.4
100
AcDbLine
 10
51.7928974853
 20
101.7664134312
 30
0.0
 11
51.7928974853
 21
101.5664134312
 31
0.0
  0
LINE
  5
F1
330
62
100
AcDbEntity
  8
MEGA_001982
  6
HIDDEN2
 62
     7
 48
25.4
100
AcDbLine
 10
51.4728241061
 20
101.7664134312
 30
0.0
 11
51.4728241061
 21
101.5664134312
 31
0.0
  0
LINE
  5
F2
330
62
100
AcDbEntity
  8
MEGA_001982
  6
HIDDEN2
 62
     7
 48
25.4
100
AcDbLine
 10
95.2408215261
 20
101.6908912725
 30
0.0
 11
100.2418658433
 21
101.6908912725
 31
0.0
  0
LINE
  5
F3
330
62
100
AcDbEntity
  8
MEGA_001982
  6
HIDDEN2
 62
     7
 48
25.4
100
AcDbLine
 10
49.9850262507
 20
101.7664134312
 30
0.0
 11
49.9850262507
 21
101.5664134312
 31
0.0
  0
LINE
  5
F4
330
62
100
AcDbEntity
  8
MEGA_001982
  6
HIDDEN2
 62
     7
 48
25.4
100
AcDbLine
 10
49.9341883575
 20
101.7664134312
 30
0.0
 11
49.9341883575
 21
101.5664134312
 31
0.0
  0
LINE
  5
F5
330
62
100
AcDbEntity
  8
MEGA_001982
  6
HIDDEN2
 62
     7
 48
25.4
100
AcDbLine
 10
50.8523483381
 20
101.7664134312
 30
0.0
 11
50.8523483381
 21
101.5664134312
 31
0.0
  0
LINE
  5
F6
330
62
100
AcDbEntity
  8
MEGA_001982
  6
HIDDEN2
 62
     7
 48
25.4
100
AcDbLine
 10
50.5382022437
 20
101.7664134312
 30
0.0
 11
50.5382022437
 21
101.5664134312
 31
0.0
  0
LINE
  5
F7
330
62
100
AcDbEntity
  8
MEGA_001982
  6
HIDDEN2
 62
     7
 48
25.4
100
AcDbLine
 10
51.111177768
 20
101.7664134312
 30
0.0
 11
51.111177768
 21
101.5664134312
 31
0.0
  0
LINE
  5
F8
330
62
100
AcDbEntity
  8
MEGA_001982
  6
HIDDEN2
 62
     7
 48
25.4
100
AcDbLine
 10
49.5540279701
 20
101.7664134312
 30
0.0
 11
49.5540279701
 21
101.5664134312
 31
0.0
  0
LINE
  5
F9
330
62
100
AcDbEntity
  8
MEGA_001982
  6
HIDDEN2
 62
     7
 48
25.4
100
AcDbLine
 10
50.2958346957
 20
101.7664134312
 30
0.0
 11
50.2958346957
 21
101.5664134312
 31
0.0
  0
LINE
  5
FA
330
62
100
AcDbEntity
  8
MEGA_001982
  6
HIDDEN2
 62
     7
 48
25.4
100
AcDbLine
 10
49.9757613164
 20
101.7664134312
 30
0.0
 11
49.9757613164
 21
101.5664134312
 31
0.0
  0
LINE
  5
FB
330
62
100
AcDbEntity
  8
MEGA_001982
  6
HIDDEN2
 62
     7
 48
25.4
100
AcDbLine
 10
51.371164139
 20
101.7664134312
 30
0.0
 11
51.371164139
 21
101.5664134312
 31
0.0
  0
LINE
  5
FC
330
62
100
AcDbEntity
  8
MEGA_001982
  6
HIDDEN2
 62
     7
 48
25.4
100
AcDbLine
 10
50.9393191036
 20
101.7664134312
 30
0.0
 11
50.9393191036
 21
101.5664134312
 31
0.0
  0
LINE
  5
FD
330
62
100
AcDbEntity
  8
MEGA_001982
  6
HIDDEN2
 62
     7
 48
25.4
100
AcDbLine
 10
50.6556962515
 20
101.7664134312
 30
0.0
 11
50.6556962515
 21
101.5664134312
 31
0.0
  0
LINE
  5
FE
330
62
100
AcDbEntity
  8
MEGA_001982
  6
HIDDEN2
 62
     7
 48
25.4
100
AcDbLine
 10
49.5924182021
 20
101.7664134312
 30
0.0
 11
49.5540279701
 21
101.7664134312
 31
0.0
  0
LINE
  5
FF
330
62
100
AcDbEntity
  8
MEGA_001982
  6
HIDDEN2
 62
     7
 48
25.4
100
AcDbLine
 10
51.111177768
 20
101.7664134312
 30
0.0
 11
50.8917049353
 21
101.7664134312
 31
0.0
  0
LINE
  5
100
330
62
100
AcDbEntity
  8
MEGA_001982
  6
HIDDEN2
 62
     7
 48
25.4
100
AcDbLine
 10
51.2854195773
 20
101.7664134312
 30
0.0
 11
51.111177768
 21
101.7664134312
 31
0.0
  0
LINE
  5
101
330
62
100
AcDbEntity
  8
MEGA_001982
  6
HIDDEN2
 62
     7
 48
25.4
100
AcDbLine
 10
54.1282476968
 20
101.7664134312
 30
0.0
 11
54.1282476968
 21
101.5664134312
 31
0.0
  0
LINE
  5
102
330
62
100
AcDbEntity
  8
MEGA_001982
  6
HIDDEN2
 62
     7
 48
25.4
100
AcDbLine
 10
53.6938130259
 20
101.7664134312
 30
0.0
 11
53.6938130259
 21
101.5664134312
 31
0.0
  0
LINE
  5
103
330
62
100
AcDbEntity
  8
MEGA_001982
  6
HIDDEN2
 62
     7
 48
25.4
100
AcDbLine
 10
52.5883362716
 20
101.7664134312
 30
0.0
 11
52.5883362716
 21
101.5664134312
 31
0.0
  0
LINE
  5
104
330
62
100
AcDbEntity
  8
MEGA_001982
  6
HIDDEN2
 62
     7
 48
25.4
100
AcDbLine
 10
53.736536013
 20
101.7664134312
 30
0.0
 11
53.736536013
 21
101.5664134312
 31
0.0
  0
LINE
  5
105
330
62
100
AcDbEntity
  8
MEGA_001982
  6
HIDDEN2
 62
     7
 48
25.4
100
AcDbLine
 10
53.8231721361
 20
101.7664134312
 30
0.0
 11
53.8231721361
 21
101.5664134312
 31
0.0
  0
LINE
  5
106
330
62
100
AcDbEntity
  8
MEGA_001982
  6
HIDDEN2
 62
     7
 48
25.4
100
AcDbLine
 10
52.7190036532
 20
101.7664134312
 30
0.0
 11
52.7190036532
 21
101.5664134312
 31
0.0
  0
LINE
  5
107
330
62
100
AcDbEntity
  8
MEGA_001982
  6
HIDDEN2
 62
     7
 48
25.4
100
AcDbLine
 10
53.8658951232
 20
101.7664134312
 30
0.0
 11
53.8658951232
 21
101.5664134312
 31
0.0
  0
LINE
  5
108
330
62
100
AcDbEntity
  8
MEGA_001982
  6
HIDDEN2
 62
     7
 48
25.4
100
AcDbLine
 10
52.2136853357
 20
101.7664134312
 30
0.0
 11
52.2136853357
 21
101.5664134312
 31
0.0
  0
LINE
  5
109
330
62
100
AcDbEntity
  8
MEGA_001982
  6
HIDDEN2
 62
     7
 48
25.4
100
AcDbLine
 10
52.635418682
 20
101.7664134312
 30
0.0
 11
52.635418682
 21
101.5664134312
 31
0.0
  0
LINE
  5
10A
330
62
100
AcDbEntity
  8
MEGA_001982
  6
HIDDEN2
 62
     7
 48
25.4
100
AcDbLine
 10
52.7617266403
 20
101.7664134312
 30
0.0
 11
52.7617266403
 21
101.5664134312
 31
0.0
  0
LINE
  5
10B
330
62
100
AcDbEntity
  8
MEGA_001982
  6
HIDDEN2
 62
     7
 48
25.4
100
AcDbLine
 10
52.9246236437
 20
101.7664134312
 30
0.0
 11
52.9246236437
 21
101.5664134312
 31
0.0
  0
LINE
  5
10C
330
62
100
AcDbEntity
  8
MEGA_001982
  6
HIDDEN2
 62
     7
 48
25.4
100
AcDbLine
 10
54.0855247097
 20
101.7664134312
 30
0.0
 11
54.0855247097
 21
101.5664134312
 31
0.0
  0
LINE
  5
10D
330
62
100
AcDbEntity
  8
MEGA_001982
  6
HIDDEN2
 62
     7
 48
25.4
100
AcDbLine
 10
54.1282476968
 20
101.7664134312
 30
0.0
 11
53.8068953095
 21
101.7664134312
 31
0.0
  0
LINE
  5
10E
330
62
100
AcDbEntity
  8
MEGA_001982
  6
HIDDEN2
 62
     7
 48
25.4
100
AcDbLine
 10
53.4244703455
 20
101.7664134312
 30
0.0
 11
52.635418682
 21
101.7664134312
 31
0.0
  0
LINE
  5
10F
330
62
100
AcDbEntity
  8
MEGA_001982
  6
HIDDEN2
 62
     7
 48
25.4
100
AcDbLine
 10
52.635418682
 20
101.7664134312
 30
0.0
 11
52.5991377661
 21
101.7664134312
 31
0.0
  0
LINE
  5
110
330
62
100
AcDbEntity
  8
MEGA_001982
  6
HIDDEN2
 62
     7
 48
25.4
100
AcDbLine
 10
56.7419605953
 20
101.7664134312
 30
0.0
 11
56.7419605953
 21
101.5664134312
 31
0.0
  0
LINE
  5
111
330
62
100
AcDbEntity
  8
MEGA_001982
  6
HIDDEN2
 62
     7
 48
25.4
100
AcDbLine
 10
55.9831886269
 20
101.7664134312
 30
0.0
 11
55.9831886269
 21
101.5664134312
 31
0.0
  0
LINE
  5
112
330
62
100
AcDbEntity
  8
MEGA_001982
  6
HIDDEN2
 62
     7
 48
25.4
100
AcDbLine
 10
55.1034078747
 20
101.7664134312
 30
0.0
 11
55.1034078747
 21
101.5664134312
 31
0.0
  0
LINE
  5
113
330
62
100
AcDbEntity
  8
MEGA_001982
  6
HIDDEN2
 62
     7
 48
25.4
100
AcDbLine
 10
56.3298012584
 20
101.7664134312
 30
0.0
 11
56.3298012584
 21
101.5664134312
 31
0.0
  0
LINE
  5
114
330
62
100
AcDbEntity
  8
MEGA_001982
  6
HIDDEN2
 62
     7
 48
25.4
100
AcDbLine
 10
56.2590455396
 20
101.7664134312
 30
0.0
 11
56.2590455396
 21
101.5664134312
 31
0.0
  0
LINE
  5
115
330
62
100
AcDbEntity
  8
MEGA_001982
  6
HIDDEN2
 62
     7
 48
25.4
100
AcDbLine
 10
56.5721929361
 20
101.7664134312
 30
0.0
 11
56.5721929361
 21
101.5664134312
 31
0.0
  0
LINE
  5
116
330
62
100
AcDbEntity
  8
MEGA_001982
  6
HIDDEN2
 62
     7
 48
25.4
100
AcDbLine
 10
55.7254379645
 20
101.7664134312
 30
0.0
 11
55.7254379645
 21
101.5664134312
 31
0.0
  0
LINE
  5
117
330
62
100
AcDbEntity
  8
MEGA_001982
  6
HIDDEN2
 62
     7
 48
25.4
100
AcDbLine
 10
55.7679111096
 20
101.7664134312
 30
0.0
 11
55.7679111096
 21
101.5664134312
 31
0.0
  0
LINE
  5
118
330
62
100
AcDbEntity
  8
MEGA_001982
  6
HIDDEN2
 62
     7
 48
25.4
100
AcDbLine
 10
56.2818913773
 20
101.7664134312
 30
0.0
 11
56.2818913773
 21
101.5664134312
 31
0.0
  0
LINE
  5
119
330
62
100
AcDbEntity
  8
MEGA_001982
  6
HIDDEN2
 62
     7
 48
25.4
100
AcDbLine
 10
55.0651056516
 20
101.7664134312
 30
0.0
 11
55.0651056516
 21
101.5664134312
 31
0.0
  0
LINE
  5
11A
330
62
100
AcDbEntity
  8
MEGA_001982
  6
HIDDEN2
 62
     7
 48
25.4
100
AcDbLine
 10
56.3858256617
 20
101.7664134312
 30
0.0
 11
56.3858256617
 21
101.5664134312
 31
0.0
  0
LINE
  5
11B
330
62
100
AcDbEntity
  8
MEGA_001982
  6
HIDDEN2
 62
     7
 48
25.4
100
AcDbLine
 10
51.4703069325
 20
101.7664134312
 30
0.0
 11
51.3053996571
 21
101.7664134312
 31
0.0
  0
LINE
  5
11C
330
62
100
AcDbEntity
  8
MEGA_001982
  6
HIDDEN2
 62
     7
 48
25.4
100
AcDbLine
 10
52.5750144931
 20
101.7664134312
 30
0.0
 11
51.4703069325
 21
101.7664134312
 31
0.0
  0
LINE
  5
11D
330
62
100
AcDbEntity
  8
MEGA_001982
  6
HIDDEN2
 62
     7
 48
25.4
100
AcDbLine
 10
52.0791514403
 20
101.7664134312
 30
0.0
 11
52.0791514403
 21
101.5664134312
 31
0.0
  0
LINE
  5
11E
330
62
100
AcDbEntity
  8
MEGA_001982
  6
HIDDEN2
 62
     7
 48
25.4
100
AcDbLine
 10
51.7921328954
 20
101.7664134312
 30
0.0
 11
51.7921328954
 21
101.5664134312
 31
0.0
  0
LINE
  5
11F
330
62
100
AcDbEntity
  8
MEGA_001982
  6
HIDDEN2
 62
     7
 48
25.4
100
AcDbLine
 10
53.7339303276
 20
101.7664134312
 30
0.0
 11
53.7339303276
 21
101.5664134312
 31
0.0
  0
LINE
  5
120
330
62
100
AcDbEntity
  8
MEGA_001982
  6
HIDDEN2
 62
     7
 48
25.4
100
AcDbLine
 10
55.4183811122
 20
101.7664134312
 30
0.0
 11
55.4183811122
 21
101.5664134312
 31
0.0
  0
LINE
  5
121
330
62
100
AcDbEntity
  8
MEGA_001982
  6
HIDDEN2
 62
     7
 48
25.4
100
AcDbLine
 10
55.0303639938
 20
101.7664134312
 30
0.0
 11
55.0303639938
 21
101.5664134312
 31
0.0
  0
LINE
  5
122
330
62
100
AcDbEntity
  8
MEGA_001982
  6
HIDDEN2
 62
     7
 48
25.4
100
AcDbLine
 10
55.4486236229
 20
101.7664134312
 30
0.0
 11
55.4486236229
 21
101.5664134312
 31
0.0
  0
LINE
  5
123
330
62
100
AcDbEntity
  8
MEGA_001982
  6
HIDDEN2
 62
     7
 48
25.4
100
AcDbLine
 10
54.7752997998
 20
101.7664134312
 30
0.0
 11
54.7752997998
 21
101.5664134312
 31
0.0
  0
LINE
  5
124
330
62
100
AcDbEntity
  8
MEGA_001982
  6
HIDDEN2
 62
     7
 48
25.4
100
AcDbLine
 10
55.7008347499
 20
101.7664134312
 30
0.0
 11
55.7008347499
 21
101.5664134312
 31
0.0
  0
LINE
  5
125
330
62
100
AcDbEntity
  8
MEGA_001982
  6
HIDDEN2
 62
     7
 48
25.4
100
AcDbLine
 10
55.6095366044
 20
101.7664134312
 30
0.0
 11
55.6095366044
 21
101.5664134312
 31
0.0
  0
LINE
  5
126
330
62
100
AcDbEntity
  8
MEGA_001982
  6
HIDDEN2
 62
     7
 48
25.4
100
AcDbLine
 10
54.7313625673
 20
101.7664134312
 30
0.0
 11
54.7313625673
 21
101.5664134312
 31
0.0
  0
LINE
  5
127
330
62
100
AcDbEntity
  8
MEGA_001982
  6
HIDDEN2
 62
     7
 48
25.4
100
AcDbLine
 10
54.7981243362
 20
101.7664134312
 30
0.0
 11
54.7981243362
 21
101.5664134312
 31
0.0
  0
LINE
  5
128
330
62
100
AcDbEntity
  8
MEGA_001982
  6
HIDDEN2
 62
     7
 48
25.4
100
AcDbLine
 10
54.8283668469
 20
101.7664134312
 30
0.0
 11
54.8283668469
 21
101.5664134312
 31
0.0
  0
LINE
  5
129
330
62
100
AcDbEntity
  8
MEGA_001982
  6
HIDDEN2
 62
     7
 48
25.4
100
AcDbLine
 10
55.432075834
 20
101.7664134312
 30
0.0
 11
55.432075834
 21
101.5664134312
 31
0.0
  0
LINE
  5
12A
330
62
100
AcDbEntity
  8
MEGA_001982
  6
HIDDEN2
 62
     7
 48
25.4
100
AcDbLine
 10
55.7647434517
 20
101.7664134312
 30
0.0
 11
55.663240775
 21
101.7664134312
 31
0.0
  0
LINE
  5
12B
330
62
100
AcDbEntity
  8
MEGA_001982
  6
HIDDEN2
 62
     7
 48
25.4
100
AcDbLine
 10
55.5609811222
 20
101.7664134312
 30
0.0
 11
55.4183811122
 21
101.7664134312
 31
0.0
  0
LINE
  5
12C
330
62
100
AcDbEntity
  8
MEGA_001982
  6
HIDDEN2
 62
     7
 48
25.4
100
AcDbLine
 10
55.5975537228
 20
101.7664134312
 30
0.0
 11
55.5975537228
 21
101.5664134312
 31
0.0
  0
LINE
  5
12D
330
62
100
AcDbEntity
  8
MEGA_001982
  6
HIDDEN2
 62
     7
 48
25.4
100
AcDbLine
 10
55.5724467328
 20
101.7664134312
 30
0.0
 11
55.089137175
 21
101.7664134312
 31
0.0
  0
LINE
  5
12E
330
62
100
AcDbEntity
  8
MEGA_001982
  6
HIDDEN2
 62
     7
 48
25.4
100
AcDbLine
 10
55.6095366044
 20
101.7664134312
 30
0.0
 11
54.7313625673
 21
101.7664134312
 31
0.0
  0
LINE
  5
12F
330
62
100
AcDbEntity
  8
MEGA_001982
  6
HIDDEN2
 62
     7
 48
25.4
100
AcDbLine
 10
58.789565135
 20
101.7664134312
 30
0.0
 11
58.789565135
 21
101.5664134312
 31
0.0
  0
LINE
  5
130
330
62
100
AcDbEntity
  8
MEGA_001982
  6
HIDDEN2
 62
     7
 48
25.4
100
AcDbLine
 10
58.5025465901
 20
101.7664134312
 30
0.0
 11
58.5025465901
 21
101.5664134312
 31
0.0
  0
LINE
  5
131
330
62
100
AcDbEntity
  8
MEGA_001982
  6
HIDDEN2
 62
     7
 48
25.4
100
AcDbLine
 10
101.7413436847
 20
101.5664134312
 30
0.0
 11
101.6365813762
 21
104.5664134312
 31
0.0
  0
LINE
  5
132
330
62
100
AcDbEntity
  8
MEGA_001982
  6
HIDDEN2
 62
     7
 48
25.4
100
AcDbLine
 10
58.7413436847
 20
101.5664134312
 30
0.0
 11
58.6365813762
 21
104.5664134312
 31
0.0
  0
LINE
  5
133
330
62
100
AcDbEntity
  8
MEGA_001982
  6
HIDDEN2
 62
     7
 48
25.4
100
AcDbLine
 10
58.8663436847
 20
99.5664134312
 30
0.0
 11
58.8663436847
 21
100.0664134312
 31
0.0
  0
LINE
  5
134
330
62
100
AcDbEntity
  8
MEGA_001982
  6
HIDDEN2
 62
     7
 48
25.4
100
AcDbLine
 10
58.8663436847
 20
100.0664134312
 30
0.0
 11
57.2418658433
 21
101.6908912725
 31
0.0
  0
LINE
  5
135
330
62
100
AcDbEntity
  8
MEGA_001982
  6
HIDDEN2
 62
     7
 48
25.4
100
AcDbLine
 10
52.1396364617
 20
101.5664134312
 30
0.0
 11
52.1396364617
 21
101.7664134312
 31
0.0
  0
LINE
  5
136
330
62
100
AcDbEntity
  8
MEGA_001982
  6
HIDDEN2
 62
     7
 48
25.4
100
AcDbLine
 10
51.3053996571
 20
101.7664134312
 30
0.0
 11
51.3053996571
 21
101.5664134312
 31
0.0
  0
LINE
  5
137
330
62
100
AcDbEntity
  8
MEGA_001982
  6
HIDDEN2
 62
     7
 48
25.4
100
AcDbLine
 10
57.1724467328
 20
101.5664134312
 30
0.0
 11
57.1724467328
 21
101.7664134312
 31
0.0
  0
LINE
  5
138
330
62
100
AcDbEntity
  8
MEGA_001982
  6
HIDDEN2
 62
     7
 48
25.4
100
AcDbLine
 10
56.3382099282
 20
101.7664134312
 30
0.0
 11
56.3382099282
 21
101.5664134312
 31
0.0
  0
LINE
  5
139
330
62
100
AcDbEntity
  8
MEGA_001982
  6
HIDDEN2
 62
     7
 48
25.4
100
AcDbLine
 10
58.8500501564
 20
101.5664134312
 30
0.0
 11
58.8500501564
 21
101.7664134312
 31
0.0
  0
LINE
  5
13A
330
62
100
AcDbEntity
  8
MEGA_001982
  6
HIDDEN2
 62
     7
 48
25.4
100
AcDbLine
 10
58.0158133519
 20
101.7664134312
 30
0.0
 11
58.0158133519
 21
101.5664134312
 31
0.0
  0
LINE
  5
13B
330
62
100
AcDbEntity
  8
MEGA_001982
  6
HIDDEN2
 62
     7
 48
25.4
100
AcDbLine
 10
54.619442616
 20
101.7664134312
 30
0.0
 11
54.619442616
 21
101.5664134312
 31
0.0
  0
LINE
  5
13C
330
62
100
AcDbEntity
  8
MEGA_001982
  6
HIDDEN2
 62
     7
 48
25.4
100
AcDbLine
 10
100.2418658433
 20
101.6908912725
 30
0.0
 11
100.1413436847
 21
104.5664134312
 31
0.0
  0
ARC
  5
13D
330
62
100
AcDbEntity
  8
MEGA_001982
  6
CONTINUOUS
 62
     7
 48
25.4
100
AcDbCircle
 10
89.2413436847
 20
97.5664134312
 30
0.0
 40
2.0
100
AcDbArc
 50
90.0
 51
180.0
  0
LINE
  5
13E
330
62
100
AcDbEntity
  8
MEGA_001982
  6
HIDDEN2
 62
     7
 48
25.4
100
AcDbLine
 10
101.8663436847
 20
100.0664134312
 30
0.0
 11
100.2418658433
 21
101.6908912725
 31
0.0
  0
LINE
  5
13F
330
62
100
AcDbEntity
  8
MEGA_001982
  6
HIDDEN2
 62
     7
 48
25.4
100
AcDbLine
 10
101.8663436847
 20
99.5664134312
 30
0.0
 11
101.8663436847
 21
100.0664134312
 31
0.0
  0
LINE
  5
140
330
62
100
AcDbEntity
  8
MEGA_001982
  6
HIDDEN2
 62
     7
 48
25.4
100
AcDbLine
 10
83.7413436847
 20
97.5664134312
 30
0.0
 11
83.7413436847
 21
101.0664134312
 31
0.0
  0
LINE
  5
141
330
62
100
AcDbEntity
  8
MEGA_001982
  6
HIDDEN2
 62
     7
 48
25.4
100
AcDbLine
 10
84.2413436847
 20
97.0664134312
 30
0.0
 11
83.7413436847
 21
97.5664134312
 31
0.0
  0
LINE
  5
142
330
62
100
AcDbEntity
  8
MEGA_001982
  6
HIDDEN2
 62
     7
 48
25.4
100
AcDbLine
 10
65.9526685501
 20
101.5664134312
 30
0.0
 11
66.2413436847
 21
101.0664134312
 31
0.0
  0
LINE
  5
143
330
62
100
AcDbEntity
  8
MEGA_001982
  6
CONTINUOUS
 62
     7
 48
25.4
100
AcDbLine
 10
65.2413436847
 20
97.5664134312
 30
0.0
 11
65.2413436847
 21
97.0664134312
 31
0.0
  0
LINE
  5
144
330
62
100
AcDbEntity
  8
MEGA_001982
  6
HIDDEN2
 62
     7
 48
25.4
100
AcDbLine
 10
57.2418658433
 20
101.6908912725
 30
0.0
 11
57.1413436847
 21
104.5664134312
 31
0.0
  0
LINE
  5
145
330
62
100
AcDbEntity
  8
MEGA_001982
  6
HIDDEN2
 62
     7
 48
25.4
100
AcDbLine
 10
54.9704437142
 20
101.7664134312
 30
0.0
 11
54.9704437142
 21
101.5664134312
 31
0.0
  0
LINE
  5
146
330
62
100
AcDbEntity
  8
MEGA_001982
  6
HIDDEN2
 62
     7
 48
25.4
100
AcDbLine
 10
52.5750144931
 20
101.5664134312
 30
0.0
 11
52.5750144931
 21
101.7664134312
 31
0.0
  0
LINE
  5
147
330
62
100
AcDbEntity
  8
MEGA_001982
  6
HIDDEN2
 62
     7
 48
25.4
100
AcDbLine
 10
51.5439160623
 20
101.7664134312
 30
0.0
 11
51.5439160623
 21
101.5664134312
 31
0.0
  0
LINE
  5
148
330
62
100
AcDbEntity
  8
MEGA_001982
  6
HIDDEN2
 62
     7
 48
25.4
100
AcDbLine
 10
52.3376393148
 20
101.5664134312
 30
0.0
 11
52.3376393148
 21
101.7664134312
 31
0.0
  0
LINE
  5
149
330
62
100
AcDbEntity
  8
MEGA_001982
  6
HIDDEN2
 62
     7
 48
25.4
100
AcDbLine
 10
51.7327891008
 20
101.7664134312
 30
0.0
 11
51.7327891008
 21
101.5664134312
 31
0.0
  0
LINE
  5
14A
330
62
100
AcDbEntity
  8
MEGA_001982
  6
HIDDEN2
 62
     7
 48
25.4
100
AcDbLine
 10
53.7830030808
 20
101.5664134312
 30
0.0
 11
53.7830030808
 21
101.7664134312
 31
0.0
  0
LINE
  5
14B
330
62
100
AcDbEntity
  8
MEGA_001982
  6
HIDDEN2
 62
     7
 48
25.4
100
AcDbLine
 10
53.4440587156
 20
101.7664134312
 30
0.0
 11
53.4440587156
 21
101.5664134312
 31
0.0
  0
LINE
  5
14C
330
62
100
AcDbEntity
  8
MEGA_001982
  6
HIDDEN2
 62
     7
 48
25.4
100
AcDbLine
 10
55.806968844
 20
101.5664134312
 30
0.0
 11
55.806968844
 21
101.7664134312
 31
0.0
  0
LINE
  5
14D
330
62
100
AcDbEntity
  8
MEGA_001982
  6
HIDDEN2
 62
     7
 48
25.4
100
AcDbLine
 10
55.5724467328
 20
101.5664134312
 30
0.0
 11
55.5724467328
 21
101.7664134312
 31
0.0
  0
LINE
  5
14E
330
62
100
AcDbEntity
  8
MEGA_001982
  6
HIDDEN2
 62
     7
 48
25.4
100
AcDbLine
 10
55.5302213405
 20
101.5664134312
 30
0.0
 11
55.5302213405
 21
101.7664134312
 31
0.0
  0
LINE
  5
14F
330
62
100
AcDbEntity
  8
MEGA_001982
  6
HIDDEN2
 62
     7
 48
25.4
100
AcDbLine
 10
55.7647434517
 20
101.5664134312
 30
0.0
 11
55.7647434517
 21
101.7664134312
 31
0.0
  0
LINE
  5
150
330
62
100
AcDbEntity
  8
MEGA_001982
  6
HIDDEN2
 62
     7
 48
25.4
100
AcDbLine
 10
56.5767263333
 20
101.7664134312
 30
0.0
 11
56.5767263333
 21
101.5664134312
 31
0.0
  0
LINE
  5
151
330
62
100
AcDbEntity
  8
MEGA_001982
  6
HIDDEN2
 62
     7
 48
25.4
100
AcDbLine
 10
57.6078247641
 20
101.5664134312
 30
0.0
 11
57.6078247641
 21
101.7664134312
 31
0.0
  0
LINE
  5
152
330
62
100
AcDbEntity
  8
MEGA_001982
  6
HIDDEN2
 62
     7
 48
25.4
100
AcDbLine
 10
57.3704495858
 20
101.5664134312
 30
0.0
 11
57.3704495858
 21
101.7664134312
 31
0.0
  0
LINE
  5
153
330
62
100
AcDbEntity
  8
MEGA_001982
  6
HIDDEN2
 62
     7
 48
25.4
100
AcDbLine
 10
56.7655993718
 20
101.7664134312
 30
0.0
 11
56.7655993718
 21
101.5664134312
 31
0.0
  0
LINE
  5
154
330
62
100
AcDbEntity
  8
MEGA_001982
  6
HIDDEN2
 62
     7
 48
25.4
100
AcDbLine
 10
58.254329757
 20
101.7664134312
 30
0.0
 11
58.254329757
 21
101.5664134312
 31
0.0
  0
LINE
  5
155
330
62
100
AcDbEntity
  8
MEGA_001982
  6
HIDDEN2
 62
     7
 48
25.4
100
AcDbLine
 10
59.2854281878
 20
101.5664134312
 30
0.0
 11
59.2854281878
 21
101.7664134312
 31
0.0
  0
LINE
  5
156
330
62
100
AcDbEntity
  8
MEGA_001982
  6
HIDDEN2
 62
     7
 48
25.4
100
AcDbLine
 10
59.0480530095
 20
101.5664134312
 30
0.0
 11
59.0480530095
 21
101.7664134312
 31
0.0
  0
LINE
  5
157
330
62
100
AcDbEntity
  8
MEGA_001982
  6
HIDDEN2
 62
     7
 48
25.4
100
AcDbLine
 10
58.4432027955
 20
101.7664134312
 30
0.0
 11
58.4432027955
 21
101.5664134312
 31
0.0
  0
LINE
  5
159
330
62
100
AcDbEntity
  8
MEGA_002634
  6
CONTINUOUS
 62
     7
 48
25.4
100
AcDbLine
 10
79.4013436847
 20
139.5664134312
 30
0.0
 11
73.0813436847
 21
139.5664134312
 31
0.0
  0
LINE
  5
15A
330
62
100
AcDbEntity
  8
MEGA_002634
  6
CONTINUOUS
 62
     7
 48
25.4
100
AcDbLine
 10
79.7413436847
 20
137.7766659629
 30
0.0
 11
79.7413436847
 21
104.5664134312
 31
0.0
  0
LINE
  5
15B
330
62
100
AcDbEntity
  8
MEGA_002634
  6
CONTINUOUS
 62
     7
 48
25.4
100
AcDbLine
 10
72.7413436847
 20
137.7766659629
 30
0.0
 11
72.7413436847
 21
104.5664134312
 31
0.0
  0
SPLINE
  5
15C
330
62
100
AcDbEntity
  8
MEGA_002634
  6
CONTINUOUS
 62
     7
 48
25.4
100
AcDbSpline
210
0.0
220
0.0
230
1.0
 70
     8
 71
     3
 72
    14
 73
    10
 74
     0
 42
0.0000000001
 43
0.0000000001
 40
0.0
 40
0.0
 40
0.0
 40
0.0
 40
0.25
 40
0.25
 40
0.5
 40
0.5
 40
0.75
 40
0.75
 40
1.0
 40
1.0
 40
1.0
 40
1.0
 10
79.74134368468219
 20
137.7766659628801
 30
0.0
 10
79.22101814430729
 20
138.1445916809038
 30
0.0
 10
78.68016541696315
 20
138.4918178353524
 30
0.0
 10
77.51262184938618
 20
139.0385825524091
 30
0.0
 10
76.87970182144396
 20
139.2268353751423
 30
0.0
 10
75.59836701881265
 20
139.2259899636003
 30
0.0
 10
74.96431569999464
 20
139.0362297321623
 30
0.0
 10
73.80231759355938
 20
138.491380546775
 30
0.0
 10
73.25807701510118
 20
138.1420516048846
 30
0.0
 10
72.74134368468219
 20
137.7766659628801
 30
0.0
  0
LINE
  5
15D
330
62
100
AcDbEntity
  8
MEGA_002634
  6
CONTINUOUS
 62
     7
 48
25.4
100
AcDbLine
 10
79.7413436847
 20
139.2264126693
 30
0.0
 11
79.7413436847
 21
137.7766659629
 31
0.0
  0
LINE
  5
15E
330
62
100
AcDbEntity
  8
MEGA_002634
  6
CONTINUOUS
 62
     7
 48
25.4
100
AcDbLine
 10
72.7413436847
 20
139.2264126693
 30
0.0
 11
72.7413436847
 21
137.7766659629
 31
0.0
  0
LINE
  5
15F
330
62
100
AcDbEntity
  8
MEGA_002634
  6
CONTINUOUS
 62
     7
 48
25.4
100
AcDbLine
 10
79.7413436847
 20
139.2264134312
 30
0.0
 11
79.4013436847
 21
139.5664134312
 31
0.0
  0
SPLINE
  5
160
330
62
100
AcDbEntity
  8
MEGA_002634
  6
HIDDEN2
 62
     7
 48
25.4
100
AcDbSpline
210
0.0
220
0.0
230
1.0
 70
     8
 71
     3
 72
    14
 73
    10
 74
     0
 42
0.0000000001
 43
0.0000000001
 40
0.0
 40
0.0
 40
0.0
 40
0.0
 40
0.25
 40
0.25
 40
0.5
 40
0.5
 40
0.75
 40
0.75
 40
1.0
 40
1.0
 40
1.0
 40
1.0
 10
72.74134368468219
 20
137.7766659628801
 30
0.0
 10
73.25807701510121
 20
138.1420516048846
 30
0.0
 10
73.80231759355941
 20
138.491380546775
 30
0.0
 10
74.96431569999464
 20
139.0362297321623
 30
0.0
 10
75.59836701881265
 20
139.2259899636003
 30
0.0
 10
76.87970182144396
 20
139.2268353751423
 30
0.0
 10
77.51262184938618
 20
139.0385825524091
 30
0.0
 10
78.68016541696315
 20
138.4918178353524
 30
0.0
 10
79.22101814430729
 20
138.1445916809038
 30
0.0
 10
79.74134368468219
 20
137.7766659628801
 30
0.0
  0
LINE
  5
161
330
62
100
AcDbEntity
  8
MEGA_002634
  6
CONTINUOUS
 62
     7
 48
25.4
100
AcDbLine
 10
73.0813436847
 20
139.5664134312
 30
0.0
 11
72.7413436847
 21
139.2264134312
 31
0.0
  0
ENDBLK
  5
163
330
62
100
AcDbEntity
  8
0
100
AcDbBlockEnd
  0
BLOCK
  5
1AE
330
164
100
AcDbEntity
  8
0
100
AcDbBlockBegin
  2
SE9
 70
     0
 71
     0
 10
0.0
 20
0.0
 30
0.0
  3
SE9
  1

  0
LINE
  5
166
330
164
100
AcDbEntity
  8
MEGA_002187
  6
CONTINUOUS
 62
     7
 48
25.4
100
AcDbLine
 10
191.5111654731
 20
66.0664134312
 30
0.0
 11
191.5111654731
 21
52.0664134312
 31
0.0
  0
LINE
  5
167
330
164
100
AcDbEntity
  8
MEGA_002187
  6
CONTINUOUS
 62
     7
 48
25.4
100
AcDbLine
 10
111.5111654731
 20
52.0664134312
 30
0.0
 11
111.5111654731
 21
66.0664134312
 31
0.0
  0
ELLIPSE
  5
168
330
164
100
AcDbEntity
  8
MEGA_002187
  6
CONTINUOUS
 62
     7
 48
25.4
100
AcDbEllipse
 10
151.5111654731
 20
52.0664134312
 30
0.0
 11
-6.123031769111893E-17
 21
-1.000000000000001
 31
0.0
210
0.0
220
0.0
230
1.0
 40
0.0524277977
 41
0.0000000000000012
 42
1.440469746831447
  0
ELLIPSE
  5
169
330
164
100
AcDbEntity
  8
MEGA_002187
  6
CONTINUOUS
 62
     7
 48
25.4
100
AcDbEllipse
 10
151.5111654731
 20
52.0664134312
 30
0.0
 11
2.938769682308881E-15
 21
-1.000000000000001
 31
0.0
210
0.0
220
0.0
230
1.0
 40
0.0524277977
 41
4.84271556034814
 42
6.28318530717953
  0
ARC
  5
16A
330
164
100
AcDbEntity
  8
MEGA_002187
  6
CONTINUOUS
 62
     7
 48
25.4
100
AcDbCircle
 10
140.9959216813
 20
70.0664134312
 30
0.0
 40
3.0
100
AcDbArc
 50
270.0
 51
7.4069121285
  0
ARC
  5
16B
330
164
100
AcDbEntity
  8
MEGA_002187
  6
CONTINUOUS
 62
     7
 48
25.4
100
AcDbCircle
 10
151.5111654731
 20
59.6104582717
 30
0.0
 40
7.674178863800023
100
AcDbArc
 50
269.611888141
 51
270.388111859
  0
ARC
  5
16C
330
164
100
AcDbEntity
  8
MEGA_002187
  6
CONTINUOUS
 62
     7
 48
25.4
100
AcDbCircle
 10
190.5111654731
 20
52.0664134312
 30
0.0
 40
1.0
100
AcDbArc
 50
270.0
 51
360.0
  0
ELLIPSE
  5
16D
330
164
100
AcDbEntity
  8
MEGA_002187
  6
CONTINUOUS
 62
     7
 48
25.4
100
AcDbEllipse
 10
190.5111654731
 20
52.0664134312
 30
0.0
 11
1.000000000000001
 21
-6.123031769111893E-17
 31
0.0
210
0.0
220
0.0
230
1.0
 40
0.1301339062
 41
4.764395604817739
 42
6.283185307179586
  0
ELLIPSE
  5
16E
330
164
100
AcDbEntity
  8
MEGA_002187
  6
CONTINUOUS
 62
     7
 48
25.4
100
AcDbEllipse
 10
190.5111654731
 20
52.0664134312
 30
0.0
 11
-6.123031769111893E-17
 21
-1.000000000000001
 31
0.0
210
0.0
220
0.0
230
1.0
 40
0.0524277977
 41
0.0000000000000012
 42
1.440469746831447
  0
ARC
  5
16F
330
164
100
AcDbEntity
  8
MEGA_002187
  6
CONTINUOUS
 62
     7
 48
25.4
100
AcDbCircle
 10
162.026409265
 20
70.0664134312
 30
0.0
 40
3.0
100
AcDbArc
 50
172.5930878715
 51
270.0
  0
LINE
  5
170
330
164
100
AcDbEntity
  8
MEGA_002187
  6
CONTINUOUS
 62
     7
 48
25.4
100
AcDbLine
 10
140.5111654731
 20
97.0664134312
 30
0.0
 11
143.9708885333
 21
70.4531591219
 31
0.0
  0
ARC
  5
171
330
164
100
AcDbEntity
  8
MEGA_002187
  6
CONTINUOUS
 62
     7
 48
25.4
100
AcDbCircle
 10
190.5111654731
 20
66.0664134312
 30
0.0
 40
1.0
100
AcDbArc
 50
0.0
 51
90.0
  0
ELLIPSE
  5
172
330
164
100
AcDbEntity
  8
MEGA_002187
  6
CONTINUOUS
 62
     7
 48
25.4
100
AcDbEllipse
 10
190.5111654731
 20
66.0664134312
 30
0.0
 11
1.000000000000001
 21
-2.612303176911189E-16
 31
0.0
210
0.0
220
0.0
230
1.0
 40
0.1301339062
 41
4.764395604817795
 42
6.283185307179586
  0
ELLIPSE
  5
173
330
164
100
AcDbEntity
  8
MEGA_002187
  6
CONTINUOUS
 62
     7
 48
25.4
100
AcDbEllipse
 10
142.5415921184
 20
70.0664134312
 30
0.0
 11
1.191630904692665E-14
 21
-3.0
 31
0.0
210
0.0
220
0.0
230
1.0
 40
0.8530066951
 41
0.0
 42
1.700071330843035
  0
ELLIPSE
  5
174
330
164
100
AcDbEntity
  8
MEGA_002187
  6
CONTINUOUS
 62
     7
 48
25.4
100
AcDbEllipse
 10
160.4807388279
 20
70.0664134312
 30
0.0
 11
3.316309046926643E-15
 21
-3.0
 31
0.0
210
0.0
220
0.0
230
1.0
 40
0.8530066951
 41
4.583113976336547
 42
6.283185307179585
  0
LINE
  5
175
330
164
100
AcDbEntity
  8
MEGA_002187
  6
CONTINUOUS
 62
     7
 48
25.4
100
AcDbLine
 10
151.5631486571
 20
51.9364554712
 30
0.0
 11
190.5631486571
 21
51.9364554712
 31
0.0
  0
LINE
  5
176
330
164
100
AcDbEntity
  8
MEGA_002187
  6
CONTINUOUS
 62
     7
 48
25.4
100
AcDbLine
 10
190.5631486571
 20
51.9364554712
 30
0.0
 11
190.5631486571
 21
65.9364554712
 31
0.0
  0
LINE
  5
177
330
164
100
AcDbEntity
  8
MEGA_002187
  6
CONTINUOUS
 62
     7
 48
25.4
100
AcDbLine
 10
151.5631486571
 20
67.0664134312
 30
0.0
 11
151.5631486571
 21
51.9364554712
 31
0.0
  0
ELLIPSE
  5
178
330
164
100
AcDbEntity
  8
MEGA_002187
  6
CONTINUOUS
 62
     7
 48
25.4
100
AcDbEllipse
 10
190.5111654731
 20
66.0664134312
 30
0.0
 11
-6.123031769111895E-17
 21
-1.000000000000001
 31
0.0
210
0.0
220
0.0
230
1.0
 40
0.0524277977
 41
1.440469746831389
 42
3.141592653589793
  0
LINE
  5
179
330
164
100
AcDbEntity
  8
MEGA_002187
  6
CONTINUOUS
 62
     7
 48
25.4
100
AcDbLine
 10
151.5111654731
 20
51.0664134312
 30
0.0
 11
112.5111654731
 21
51.0664134312
 31
0.0
  0
LINE
  5
17A
330
164
100
AcDbEntity
  8
MEGA_002187
  6
CONTINUOUS
 62
     7
 48
25.4
100
AcDbLine
 10
190.5111654731
 20
51.0664134312
 30
0.0
 11
151.5111654731
 21
51.0664134312
 31
0.0
  0
LINE
  5
17B
330
164
100
AcDbEntity
  8
MEGA_002187
  6
CONTINUOUS
 62
     7
 48
25.4
100
AcDbLine
 10
190.5631486571
 20
65.9364554712
 30
0.0
 11
152.3411589242
 21
65.9364554712
 31
0.0
  0
LINE
  5
17C
330
164
100
AcDbEntity
  8
MEGA_002187
  6
CONTINUOUS
 62
     7
 48
25.4
100
AcDbLine
 10
160.4807388279
 20
67.0664134312
 30
0.0
 11
190.5111654731
 21
67.0664134312
 31
0.0
  0
ARC
  5
17D
330
164
100
AcDbEntity
  8
MEGA_002187
  6
CONTINUOUS
 62
     7
 48
25.4
100
AcDbCircle
 10
164.8705616003
 20
5.5631551845
 30
0.0
 40
61.65972201469999
100
AcDbArc
 50
94.0825886205
 51
101.7242886767
  0
ELLIPSE
  5
17E
330
164
100
AcDbEntity
  8
MEGA_002187
  6
CONTINUOUS
 62
     7
 48
25.4
100
AcDbEllipse
 10
151.727507602
 20
44.4543023618
 30
0.0
 11
0.2181826974852056
 21
31.74213470040179
 31
0.0
210
0.0
220
0.0
230
1.0
 40
0.0166858782
 41
5.463890612941674
 42
5.505371623494581
  0
SPLINE
  5
17F
330
164
100
AcDbEntity
  8
MEGA_002187
  6
CONTINUOUS
 62
     7
 48
25.4
100
AcDbSpline
210
0.0
220
0.0
230
1.0
 70
     8
 71
     3
 72
    18
 73
    14
 74
     0
 42
0.0000000001
 43
0.0000000001
 40
0.0
 40
0.0
 40
0.0
 40
0.0
 40
0.25
 40
0.25
 40
0.5
 40
0.5
 40
0.75
 40
0.75
 40
0.875
 40
0.875
 40
0.9375
 40
0.9375
 40
1.0
 40
1.0
 40
1.0
 40
1.0
 10
145.0792587607726
 20
70.45315912194988
 30
0.0
 10
145.4408216538756
 20
70.45315912194988
 30
0.0
 10
145.8899414618326
 20
70.22706873025413
 30
0.0
 10
146.8250699828653
 20
69.62914654004787
 30
0.0
 10
147.3199231141536
 20
69.24714491323664
 30
0.0
 10
148.3052009297332
 20
68.43819973189069
 30
0.0
 10
148.8066371393725
 20
68.00146434880617
 30
0.0
 10
149.5593228528328
 20
67.32618783031852
 30
0.0
 10
149.8098028581659
 20
67.0985229507658
 30
0.0
 10
150.1817132457072
 20
66.74979410588783
 30
0.0
 10
150.3051898747294
 20
66.63250089223489
 30
0.0
 10
150.5461813714866
 20
66.39029763538629
 30
0.0
 10
150.6697522215396
 20
66.27071497413523
 30
0.0
 10
150.7588689332324
 20
66.12316322448064
 30
0.0
  0
SPLINE
  5
180
330
164
100
AcDbEntity
  8
MEGA_002187
  6
CONTINUOUS
 62
     7
 48
25.4
100
AcDbSpline
210
0.0
220
0.0
230
1.0
 70
     8
 71
     3
 72
    10
 73
     6
 74
     0
 42
0.0000000001
 43
0.0000000001
 40
0.0
 40
0.0
 40
0.0
 40
0.0
 40
0.5
 40
0.5
 40
1.0
 40
1.0
 40
1.0
 40
1.0
 10
150.7588689332324
 20
66.12316322448064
 30
0.0
 10
150.7585610331787
 20
66.08784078044677
 30
0.0
 10
150.7545075020852
 20
66.05313435503824
 30
0.0
 10
150.7315354044659
 20
65.98616625616299
 30
0.0
 10
150.7108373590993
 20
65.95504266484487
 30
0.0
 10
150.6811720220523
 20
65.93645547123799
 30
0.0
  0
ARC
  5
181
330
164
100
AcDbEntity
  8
MEGA_002187
  6
CONTINUOUS
 62
     7
 48
25.4
100
AcDbCircle
 10
138.1507907672
 20
5.5561060549
 30
0.0
 40
61.6668229279
100
AcDbArc
 50
78.2761519461
 51
85.9169707567
  0
LINE
  5
182
330
164
100
AcDbEntity
  8
MEGA_002187
  6
CONTINUOUS
 62
     7
 48
25.4
100
AcDbLine
 10
145.0792587608
 20
70.4531591219
 30
0.0
 11
143.9708885333
 21
70.4531591219
 31
0.0
  0
SPLINE
  5
183
330
164
100
AcDbEntity
  8
MEGA_002187
  6
CONTINUOUS
 62
     7
 48
25.4
100
AcDbSpline
210
0.0
220
0.0
230
1.0
 70
     8
 71
     3
 72
    10
 73
     6
 74
     0
 42
0.0000000001
 43
0.0000000001
 40
0.0
 40
0.0
 40
0.0
 40
0.0
 40
0.5
 40
0.5
 40
1.0
 40
1.0
 40
1.0
 40
1.0
 10
152.3411589242451
 20
65.93645547123799
 30
0.0
 10
152.3112785748674
 20
65.9551773866442
 30
0.0
 10
152.2908519520633
 20
65.98620024137914
 30
0.0
 10
152.2680472682638
 20
66.05228586157941
 30
0.0
 10
152.2637700986778
 20
66.08781949438131
 30
0.0
 10
152.2634620130646
 20
66.12316322449991
 30
0.0
  0
SPLINE
  5
184
330
164
100
AcDbEntity
  8
MEGA_002187
  6
CONTINUOUS
 62
     7
 48
25.4
100
AcDbSpline
210
0.0
220
0.0
230
1.0
 70
     8
 71
     3
 72
    18
 73
    14
 74
     0
 42
0.0000000001
 43
0.0000000001
 40
0.0
 40
0.0
 40
0.0
 40
0.0
 40
0.0625
 40
0.0625
 40
0.1250000000000001
 40
0.1250000000000001
 40
0.2500000000000001
 40
0.2500000000000001
 40
0.5000000000000001
 40
0.5000000000000001
 40
0.7500000000000001
 40
0.7500000000000001
 40
1.0
 40
1.0
 40
1.0
 40
1.0
 10
152.2634620130646
 20
66.12316322449991
 30
0.0
 10
152.3547041766946
 20
66.27423411375672
 30
0.0
 10
152.4778067365939
 20
66.39201605668028
 30
0.0
 10
152.7179527688645
 20
66.63326319648772
 30
0.0
 10
152.8411783583479
 20
66.75032482451515
 30
0.0
 10
153.2127095348157
 20
67.09868304686579
 30
0.0
 10
153.4634302791749
 20
67.32657777965839
 30
0.0
 10
154.2182104809138
 20
68.00369975738224
 30
0.0
 10
154.714376025899
 20
68.43574606065717
 30
0.0
 10
155.6944278486883
 20
69.24078354347574
 30
0.0
 10
156.1876711611525
 20
69.62243634463295
 30
0.0
 10
157.1302931638827
 20
70.22629967245747
 30
0.0
 10
157.5805747373326
 20
70.45315912194988
 30
0.0
 10
157.9430721855248
 20
70.45315912194988
 30
0.0
  0
LINE
  5
185
330
164
100
AcDbEntity
  8
MEGA_002187
  6
CONTINUOUS
 62
     7
 48
25.4
100
AcDbLine
 10
159.0514424129
 20
70.4531591219
 30
0.0
 11
157.9430721855
 21
70.4531591219
 31
0.0
  0
LINE
  5
186
330
164
100
AcDbEntity
  8
MEGA_002187
  6
CONTINUOUS
 62
     7
 48
25.4
100
AcDbLine
 10
150.681172022
 20
65.9364554712
 30
0.0
 11
112.4591822892
 21
65.9364554712
 31
0.0
  0
ELLIPSE
  5
187
330
164
100
AcDbEntity
  8
MEGA_002187
  6
CONTINUOUS
 62
     7
 48
25.4
100
AcDbEllipse
 10
151.2948233443
 20
44.4543023614
 30
0.0
 11
-0.2181826974912159
 21
31.74213470081112
 31
0.0
210
0.0
220
0.0
230
1.0
 40
0.0166858782
 41
0.7778136836377481
 42
0.819294694191313
  0
LINE
  5
188
330
164
100
AcDbEntity
  8
MEGA_002187
  6
CONTINUOUS
 62
     7
 48
25.4
100
AcDbLine
 10
112.5111654731
 20
67.0664134312
 30
0.0
 11
142.5415921184
 21
67.0664134312
 31
0.0
  0
ELLIPSE
  5
189
330
164
100
AcDbEntity
  8
MEGA_002187
  6
CONTINUOUS
 62
     7
 48
25.4
100
AcDbEllipse
 10
112.5111654731
 20
66.0664134312
 30
0.0
 11
6.123031769111888E-17
 21
1.0
 31
0.0
210
0.0
220
0.0
230
0.9999999999999999
 40
0.0524277977
 41
0.0
 42
1.701122906758404
  0
LINE
  5
18A
330
164
100
AcDbEntity
  8
MEGA_002187
  6
CONTINUOUS
 62
     7
 48
25.4
100
AcDbLine
 10
112.4591822892
 20
65.9364554712
 30
0.0
 11
112.4591822892
 21
51.9364554712
 31
0.0
  0
LINE
  5
18B
330
164
100
AcDbEntity
  8
MEGA_002187
  6
CONTINUOUS
 62
     7
 48
25.4
100
AcDbLine
 10
112.4591822892
 20
51.9364554712
 30
0.0
 11
151.4591822892
 21
51.9364554712
 31
0.0
  0
LINE
  5
18C
330
164
100
AcDbEntity
  8
MEGA_002187
  6
CONTINUOUS
 62
     7
 48
25.4
100
AcDbLine
 10
151.4591822892
 20
51.9364554712
 30
0.0
 11
151.4591822892
 21
67.0664134312
 31
0.0
  0
LINE
  5
18D
330
164
100
AcDbEntity
  8
MEGA_002187
  6
CONTINUOUS
 62
     7
 48
25.4
100
AcDbLine
 10
151.5111654731
 20
67.0664134312
 30
0.0
 11
150.7677146096
 21
67.0664134312
 31
0.0
  0
LINE
  5
18E
330
164
100
AcDbEntity
  8
MEGA_002187
  6
CONTINUOUS
 62
     7
 48
25.4
100
AcDbLine
 10
152.2546163367
 20
67.0664134312
 30
0.0
 11
151.5111654731
 21
67.0664134312
 31
0.0
  0
LINE
  5
18F
330
164
100
AcDbEntity
  8
MEGA_002187
  6
CONTINUOUS
 62
     7
 48
25.4
100
AcDbLine
 10
162.5111654731
 20
97.0664134312
 30
0.0
 11
140.5111654731
 21
97.0664134312
 31
0.0
  0
ARC
  5
190
330
164
100
AcDbEntity
  8
MEGA_002187
  6
CONTINUOUS
 62
     7
 48
25.4
100
AcDbCircle
 10
112.5111654731
 20
66.0664134312
 30
0.0
 40
1.0
100
AcDbArc
 50
90.0
 51
180.0
  0
LINE
  5
191
330
164
100
AcDbEntity
  8
MEGA_002187
  6
CONTINUOUS
 62
     7
 48
25.4
100
AcDbLine
 10
159.0514424129
 20
70.4531591219
 30
0.0
 11
162.5111654731
 21
97.0664134312
 31
0.0
  0
ELLIPSE
  5
192
330
164
100
AcDbEntity
  8
MEGA_002187
  6
CONTINUOUS
 62
     7
 48
25.4
100
AcDbEllipse
 10
112.5111654731
 20
66.0664134312
 30
0.0
 11
-1.000000000000001
 21
2.612303176911189E-16
 31
0.0
210
0.0
220
0.0
230
1.0
 40
0.1301339062
 41
0.0
 42
1.518789702361848
  0
ARC
  5
193
330
164
100
AcDbEntity
  8
MEGA_002187
  6
CONTINUOUS
 62
     7
 48
25.4
100
AcDbCircle
 10
112.5111654731
 20
52.0664134312
 30
0.0
 40
1.0
100
AcDbArc
 50
180.0
 51
270.0
  0
ELLIPSE
  5
194
330
164
100
AcDbEntity
  8
MEGA_002187
  6
CONTINUOUS
 62
     7
 48
25.4
100
AcDbEllipse
 10
112.5111654731
 20
52.0664134312
 30
0.0
 11
-1.000000000000001
 21
6.123031769111893E-17
 31
0.0
210
0.0
220
0.0
230
1.0
 40
0.1301339062
 41
0.0
 42
1.518789702361848
  0
ELLIPSE
  5
195
330
164
100
AcDbEntity
  8
MEGA_002187
  6
CONTINUOUS
 62
     7
 48
25.4
100
AcDbEllipse
 10
112.5111654731
 20
52.0664134312
 30
0.0
 11
-6.123031769111893E-17
 21
-1.000000000000001
 31
0.0
210
0.0
220
0.0
230
1.0
 40
0.0524277977
 41
4.84271556034814
 42
6.283185307179586
  0
LINE
  5
196
330
164
100
AcDbEntity
  8
MEGA_001982
  6
CONTINUOUS
 62
     7
 48
25.4
100
AcDbLine
 10
140.5111654731
 20
97.5664134312
 30
0.0
 11
162.5111654731
 21
97.5664134312
 31
0.0
  0
LINE
  5
197
330
164
100
AcDbEntity
  8
MEGA_001982
  6
CONTINUOUS
 62
     7
 48
25.4
100
AcDbLine
 10
162.5111654731
 20
97.0664134312
 30
0.0
 11
140.5111654731
 21
97.0664134312
 31
0.0
  0
LINE
  5
198
330
164
100
AcDbEntity
  8
MEGA_001982
  6
CONTINUOUS
 62
     7
 48
25.4
100
AcDbLine
 10
161.6937335787
 20
99.5664134312
 30
0.0
 11
162.0111654731
 21
104.5664134312
 31
0.0
  0
LINE
  5
199
330
164
100
AcDbEntity
  8
MEGA_001982
  6
CONTINUOUS
 62
     7
 48
25.4
100
AcDbLine
 10
164.6598980246
 20
99.5664134312
 30
0.0
 11
165.0111654731
 21
104.5664134312
 31
0.0
  0
LINE
  5
19A
330
164
100
AcDbEntity
  8
MEGA_001982
  6
CONTINUOUS
 62
     7
 48
25.4
100
AcDbLine
 10
138.3624329217
 20
99.5664134312
 30
0.0
 11
138.0111654731
 21
104.5664134312
 31
0.0
  0
LINE
  5
19B
330
164
100
AcDbEntity
  8
MEGA_001982
  6
CONTINUOUS
 62
     7
 48
25.4
100
AcDbLine
 10
141.3285973676
 20
99.5664134312
 30
0.0
 11
138.3624329217
 21
99.5664134312
 31
0.0
  0
LINE
  5
19C
330
164
100
AcDbEntity
  8
MEGA_001982
  6
CONTINUOUS
 62
     7
 48
25.4
100
AcDbLine
 10
141.3285973676
 20
99.5664134312
 30
0.0
 11
141.0111654731
 21
104.5664134312
 31
0.0
  0
LINE
  5
19D
330
164
100
AcDbEntity
  8
MEGA_001982
  6
CONTINUOUS
 62
     7
 48
25.4
100
AcDbLine
 10
165.0111654731
 20
104.5664134312
 30
0.0
 11
162.0111654731
 21
104.5664134312
 31
0.0
  0
LINE
  5
19E
330
164
100
AcDbEntity
  8
MEGA_001982
  6
CONTINUOUS
 62
     7
 48
25.4
100
AcDbLine
 10
141.0111654731
 20
104.5664134312
 30
0.0
 11
138.0111654731
 21
104.5664134312
 31
0.0
  0
LINE
  5
19F
330
164
100
AcDbEntity
  8
MEGA_001982
  6
CONTINUOUS
 62
     7
 48
25.4
100
AcDbLine
 10
162.0111654731
 20
104.5664134312
 30
0.0
 11
141.0111654731
 21
104.5664134312
 31
0.0
  0
LINE
  5
1A0
330
164
100
AcDbEntity
  8
MEGA_001982
  6
CONTINUOUS
 62
     7
 48
25.4
100
AcDbLine
 10
161.6937335787
 20
99.5664134312
 30
0.0
 11
141.3285973676
 21
99.5664134312
 31
0.0
  0
LINE
  5
1A1
330
164
100
AcDbEntity
  8
MEGA_001982
  6
CONTINUOUS
 62
     7
 48
25.4
100
AcDbLine
 10
164.6598980246
 20
99.5664134312
 30
0.0
 11
161.6937335787
 21
99.5664134312
 31
0.0
  0
ARC
  5
1A2
330
164
100
AcDbEntity
  8
MEGA_001982
  6
CONTINUOUS
 62
     7
 48
25.4
100
AcDbCircle
 10
138.5111654731
 20
97.5664134312
 30
0.0
 40
2.0
100
AcDbArc
 50
0.0
 51
90.0
  0
LINE
  5
1A3
330
164
100
AcDbEntity
  8
MEGA_001982
  6
CONTINUOUS
 62
     7
 48
25.4
100
AcDbLine
 10
162.5111654731
 20
97.0664134312
 30
0.0
 11
162.5111654731
 21
97.5664134312
 31
0.0
  0
ARC
  5
1A4
330
164
100
AcDbEntity
  8
MEGA_001982
  6
CONTINUOUS
 62
     7
 48
25.4
100
AcDbCircle
 10
164.5111654731
 20
97.5664134312
 30
0.0
 40
2.0
100
AcDbArc
 50
90.0
 51
180.0
  0
LINE
  5
1A5
330
164
100
AcDbEntity
  8
MEGA_001982
  6
CONTINUOUS
 62
     7
 48
25.4
100
AcDbLine
 10
140.5111654731
 20
97.5664134312
 30
0.0
 11
140.5111654731
 21
97.0664134312
 31
0.0
  0
LINE
  5
1A6
330
164
100
AcDbEntity
  8
MEGA_002634
  6
CONTINUOUS
 62
     7
 48
25.4
100
AcDbLine
 10
155.0111654731
 20
137.7766659629
 30
0.0
 11
155.0111654731
 21
104.5664134312
 31
0.0
  0
LINE
  5
1A7
330
164
100
AcDbEntity
  8
MEGA_002634
  6
CONTINUOUS
 62
     7
 48
25.4
100
AcDbLine
 10
148.0111654731
 20
137.7766659629
 30
0.0
 11
148.0111654731
 21
104.5664134312
 31
0.0
  0
LINE
  5
1A8
330
164
100
AcDbEntity
  8
MEGA_002634
  6
CONTINUOUS
 62
     7
 48
25.4
100
AcDbLine
 10
154.6711654731
 20
139.5664134312
 30
0.0
 11
148.3511654731
 21
139.5664134312
 31
0.0
  0
LINE
  5
1A9
330
164
100
AcDbEntity
  8
MEGA_002634
  6
CONTINUOUS
 62
     7
 48
25.4
100
AcDbLine
 10
155.0111654731
 20
137.7766659629
 30
0.0
 11
155.0111654731
 21
139.2264126693
 31
0.0
  0
SPLINE
  5
1AA
330
164
100
AcDbEntity
  8
MEGA_002634
  6
CONTINUOUS
 62
     7
 48
25.4
100
AcDbSpline
210
0.0
220
0.0
230
1.0
 70
     8
 71
     3
 72
    14
 73
    10
 74
     0
 42
0.0000000001
 43
0.0000000001
 40
0.0
 40
0.0
 40
0.0
 40
0.0
 40
0.2500000000000001
 40
0.2500000000000001
 40
0.5000000000000001
 40
0.5000000000000001
 40
0.75
 40
0.75
 40
1.0
 40
1.0
 40
1.0
 40
1.0
 10
155.0111654731487
 20
137.7766659628801
 30
0.0
 10
154.4944321427297
 20
138.1420516048846
 30
0.0
 10
153.9501915642715
 20
138.491380546775
 30
0.0
 10
152.7881934578363
 20
139.0362297321623
 30
0.0
 10
152.1541421390182
 20
139.2259899636003
 30
0.0
 10
150.8728073363869
 20
139.2268353751423
 30
0.0
 10
150.2398873084447
 20
139.0385825524091
 30
0.0
 10
149.0723437408677
 20
138.4918178353524
 30
0.0
 10
148.5314910135236
 20
138.1445916809037
 30
0.0
 10
148.0111654731487
 20
137.7766659628801
 30
0.0
  0
LINE
  5
1AB
330
164
100
AcDbEntity
  8
MEGA_002634
  6
CONTINUOUS
 62
     7
 48
25.4
100
AcDbLine
 10
155.0111654731
 20
139.2264134312
 30
0.0
 11
154.6711654731
 21
139.5664134312
 31
0.0
  0
LINE
  5
1AC
330
164
100
AcDbEntity
  8
MEGA_002634
  6
CONTINUOUS
 62
     7
 48
25.4
100
AcDbLine
 10
148.0111654731
 20
139.2264126693
 30
0.0
 11
148.0111654731
 21
137.7766659629
 31
0.0
  0
LINE
  5
1AD
330
164
100
AcDbEntity
  8
MEGA_002634
  6
CONTINUOUS
 62
     7
 48
25.4
100
AcDbLine
 10
148.3511654731
 20
139.5664134312
 30
0.0
 11
148.0111654731
 21
139.2264134312
 31
0.0
  0
ENDBLK
  5
1AF
330
164
100
AcDbEntity
  8
0
100
AcDbBlockEnd
  0
BLOCK
  5
222
330
1B0
100
AcDbEntity
  8
0
100
AcDbBlockBegin
  2
SE10
 70
     0
 71
     0
 10
0.0
 20
0.0
 30
0.0
  3
SE10
  1

  0
LINE
  5
1B2
330
1B0
100
AcDbEntity
  8
MEGA_002187
  6
CONTINUOUS
 62
     7
 48
25.4
100
AcDbLine
 10
69.3506354556
 20
203.2238305768
 30
0.0
 11
71.3314109521
 21
165.4947735017
 31
0.0
  0
LINE
  5
1B3
330
1B0
100
AcDbEntity
  8
MEGA_002187
  6
CONTINUOUS
 62
     7
 48
25.4
100
AcDbLine
 10
81.1512764173
 20
165.4947735017
 30
0.0
 11
83.1328556955
 21
203.2391407064
 31
0.0
  0
LINE
  5
1B4
330
1B0
100
AcDbEntity
  8
MEGA_002187
  6
CONTINUOUS
 62
     7
 48
25.4
100
AcDbLine
 10
79.3053075853
 20
165.4952181153
 30
0.0
 11
78.3151517
 21
165.5472012993
 31
0.0
  0
LINE
  5
1B5
330
1B0
100
AcDbEntity
  8
MEGA_002187
  6
CONTINUOUS
 62
     7
 48
25.4
100
AcDbLine
 10
78.3151517
 20
164.5472012993
 30
0.0
 11
78.3151517
 21
165.5472012993
 31
0.0
  0
LINE
  5
1B6
330
1B0
100
AcDbEntity
  8
MEGA_002187
  6
CONTINUOUS
 62
     7
 48
25.4
100
AcDbLine
 10
72.1200356694
 20
204.5472012993
 30
0.0
 11
71.1298797841
 21
204.5991844833
 31
0.0
  0
ARC
  5
1B7
330
1B0
100
AcDbEntity
  8
MEGA_002187
  6
CONTINUOUS
 62
     7
 48
25.4
100
AcDbCircle
 10
72.1370926516
 20
204.5472012993
 30
0.0
 40
1.008553425499997
100
AcDbArc
 50
177.0455334337
 51
182.9544665663
  0
LINE
  5
1B8
330
1B0
100
AcDbEntity
  8
MEGA_002187
  6
CONTINUOUS
 62
     7
 48
25.4
100
AcDbLine
 10
72.1200356694
 20
204.5472012993
 30
0.0
 11
71.1298797841
 21
204.4952181153
 31
0.0
  0
LINE
  5
1B9
330
1B0
100
AcDbEntity
  8
MEGA_002187
  6
CONTINUOUS
 62
     7
 48
25.4
100
AcDbLine
 10
71.3314109521
 20
243.599629097
 30
0.0
 11
69.3498316738
 21
205.8552618922
 31
0.0
  0
ARC
  5
1BA
330
1B0
100
AcDbEntity
  8
MEGA_002187
  6
CONTINUOUS
 62
     7
 48
25.4
100
AcDbCircle
 10
80.3455947177
 20
204.5472012993
 30
0.0
 40
1.008553425499997
100
AcDbArc
 50
357.0455334337
 51
2.9544665663
  0
LINE
  5
1BB
330
1B0
100
AcDbEntity
  8
MEGA_002187
  6
CONTINUOUS
 62
     7
 48
25.4
100
AcDbLine
 10
81.3528075853
 20
204.4952181153
 30
0.0
 11
80.3626517
 21
204.5472012993
 31
0.0
  0
ELLIPSE
  5
1BC
330
1B0
100
AcDbEntity
  8
MEGA_002187
  6
CONTINUOUS
 62
     7
 48
25.4
100
AcDbEllipse
 10
74.1675356694
 20
243.5472012993
 30
0.0
 11
4.426123031769112E-14
 21
1.000000000000008
 31
0.0
210
0.0
220
0.0
230
1.0
 40
0.9914964279
 41
0.0
 42
1.518789702361835
  0
LINE
  5
1BD
330
1B0
100
AcDbEntity
  8
MEGA_002187
  6
CONTINUOUS
 62
     7
 48
25.4
100
AcDbLine
 10
74.1675356694
 20
243.5472012993
 30
0.0
 11
73.1773797841
 21
243.5991844833
 31
0.0
  0
LINE
  5
1BE
330
1B0
100
AcDbEntity
  8
MEGA_002187
  6
CONTINUOUS
 62
     7
 48
25.4
100
AcDbLine
 10
81.3528075853
 20
204.5991844833
 30
0.0
 11
80.3626517
 21
204.5472012993
 31
0.0
  0
LINE
  5
1BF
330
1B0
100
AcDbEntity
  8
MEGA_002187
  6
CONTINUOUS
 62
     7
 48
25.4
100
AcDbLine
 10
74.1675356694
 20
243.5472012993
 30
0.0
 11
74.1675356694
 21
244.5472012993
 31
0.0
  0
ELLIPSE
  5
1C0
330
1B0
100
AcDbEntity
  8
MEGA_002187
  6
CONTINUOUS
 62
     7
 48
25.4
100
AcDbEllipse
 10
72.3300356694
 20
243.5472012993
 30
0.0
 11
-8.143876968230891E-14
 21
0.999999999999987
 31
0.0
210
0.0
220
0.0
230
1.0
 40
0.9914964279
 41
0.0000000000000039
 42
1.518789702361709
  0
LINE
  5
1C1
330
1B0
100
AcDbEntity
  8
MEGA_002187
  6
CONTINUOUS
 62
     7
 48
25.4
100
AcDbLine
 10
79.3053075853
 20
243.5991844833
 30
0.0
 11
78.3151517
 21
243.5472012993
 31
0.0
  0
ELLIPSE
  5
1C2
330
1B0
100
AcDbEntity
  8
MEGA_002187
  6
CONTINUOUS
 62
     7
 48
25.4
100
AcDbEllipse
 10
78.3151517
 20
243.5472012993
 30
0.0
 11
2.033876968230888E-14
 21
-1.000000000000008
 31
0.0
210
0.0
220
0.0
230
1.0
 40
0.9914964279
 41
1.622802951227982
 42
3.141592653589793
  0
LINE
  5
1C3
330
1B0
100
AcDbEntity
  8
MEGA_002187
  6
CONTINUOUS
 62
     7
 48
25.4
100
AcDbLine
 10
78.3151517
 20
243.5472012993
 30
0.0
 11
78.3151517
 21
244.5472012993
 31
0.0
  0
ELLIPSE
  5
1C4
330
1B0
100
AcDbEntity
  8
MEGA_002187
  6
CONTINUOUS
 62
     7
 48
25.4
100
AcDbEllipse
 10
80.1526517
 20
243.5472012993
 30
0.0
 11
-1.996123031769112E-14
 21
-1.000000000000001
 31
0.0
210
0.0
220
0.0
230
1.0
 40
0.9914964279
 41
1.622802951228022
 42
3.141592653589793
  0
ARC
  5
1C5
330
1B0
100
AcDbEntity
  8
MEGA_002187
  6
CONTINUOUS
 62
     7
 48
25.4
100
AcDbCircle
 10
80.1526517
 20
243.5472012993
 30
0.0
 40
1.0
100
AcDbArc
 50
3.0052693597
 51
90.0
  0
LINE
  5
1C6
330
1B0
100
AcDbEntity
  8
MEGA_002187
  6
CONTINUOUS
 62
     7
 48
25.4
100
AcDbLine
 10
81.1428075853
 20
243.5991844833
 30
0.0
 11
81.1512764172
 21
243.599629097
 31
0.0
  0
ARC
  5
1C7
330
1B0
100
AcDbEntity
  8
MEGA_002187
  6
CONTINUOUS
 62
     7
 48
25.4
100
AcDbCircle
 10
57.1071092029
 20
205.026345506
 30
0.0
 40
26.04490660710002
100
AcDbArc
 50
0.7717273457
 51
19.0256810747
  0
ELLIPSE
  5
1C8
330
1B0
100
AcDbEntity
  8
MEGA_002187
  6
CONTINUOUS
 62
     7
 48
25.4
100
AcDbEllipse
 10
80.3621461548
 20
204.76354343
 30
0.0
 11
4.154703794095854
 21
0.2181219484937774
 31
0.0
210
0.0
220
0.0
230
1.0
 40
0.1274869252
 41
0.7779283765088556
 42
0.8194093871319756
  0
LINE
  5
1C9
330
1B0
100
AcDbEntity
  8
MEGA_002187
  6
CONTINUOUS
 62
     7
 48
25.4
100
AcDbLine
 10
79.3053075853
 20
165.4952181153
 30
0.0
 11
81.1428075853
 21
165.4952181153
 31
0.0
  0
LINE
  5
1CA
330
1B0
100
AcDbEntity
  8
MEGA_002187
  6
CONTINUOUS
 62
     7
 48
25.4
100
AcDbLine
 10
79.3053075853
 20
243.5991844833
 30
0.0
 11
81.3528075853
 21
204.5991844833
 31
0.0
  0
LINE
  5
1CB
330
1B0
100
AcDbEntity
  8
MEGA_002187
  6
CONTINUOUS
 62
     7
 48
25.4
100
AcDbLine
 10
71.3314109521
 20
243.599629097
 30
0.0
 11
71.3398797841
 21
243.5991844833
 31
0.0
  0
LINE
  5
1CC
330
1B0
100
AcDbEntity
  8
MEGA_002187
  6
CONTINUOUS
 62
     7
 48
25.4
100
AcDbLine
 10
72.3300356694
 20
244.5472012993
 30
0.0
 11
74.1675356694
 21
244.5472012993
 31
0.0
  0
LINE
  5
1CD
330
1B0
100
AcDbEntity
  8
MEGA_002187
  6
CONTINUOUS
 62
     7
 48
25.4
100
AcDbLine
 10
73.1773797841
 20
243.5991844833
 30
0.0
 11
71.3398797841
 21
243.5991844833
 31
0.0
  0
LINE
  5
1CE
330
1B0
100
AcDbEntity
  8
MEGA_002187
  6
CONTINUOUS
 62
     7
 48
25.4
100
AcDbLine
 10
78.3151517
 20
244.5472012993
 30
0.0
 11
80.1526517
 21
244.5472012993
 31
0.0
  0
LINE
  5
1CF
330
1B0
100
AcDbEntity
  8
MEGA_002187
  6
CONTINUOUS
 62
     7
 48
25.4
100
AcDbLine
 10
69.1440728018
 20
204.5991844833
 30
0.0
 11
71.1298797841
 21
204.5991844833
 31
0.0
  0
LINE
  5
1D0
330
1B0
100
AcDbEntity
  8
MEGA_002187
  6
CONTINUOUS
 62
     7
 48
25.4
100
AcDbLine
 10
71.1298797841
 20
204.5991844833
 30
0.0
 11
73.1773797841
 21
243.5991844833
 31
0.0
  0
ARC
  5
1D1
330
1B0
100
AcDbEntity
  8
MEGA_002187
  6
CONTINUOUS
 62
     7
 48
25.4
100
AcDbCircle
 10
72.3300356694
 20
243.5472012993
 30
0.0
 40
1.0
100
AcDbArc
 50
90.0
 51
176.9947306403
  0
LINE
  5
1D2
330
1B0
100
AcDbEntity
  8
MEGA_002187
  6
CONTINUOUS
 62
     7
 48
25.4
100
AcDbLine
 10
83.3386145675
 20
204.4952181153
 30
0.0
 11
81.3528075853
 21
204.4952181153
 31
0.0
  0
LINE
  5
1D3
330
1B0
100
AcDbEntity
  8
MEGA_002187
  6
CONTINUOUS
 62
     7
 48
25.4
100
AcDbLine
 10
81.3528075853
 20
204.4952181153
 30
0.0
 11
79.3053075853
 21
165.4952181153
 31
0.0
  0
LINE
  5
1D4
330
1B0
100
AcDbEntity
  8
MEGA_002187
  6
CONTINUOUS
 62
     7
 48
25.4
100
AcDbLine
 10
74.1675356694
 20
243.5472012993
 30
0.0
 11
72.1200356694
 21
204.5472012993
 31
0.0
  0
LINE
  5
1D5
330
1B0
100
AcDbEntity
  8
MEGA_002187
  6
CONTINUOUS
 62
     7
 48
25.4
100
AcDbLine
 10
78.3151517
 20
165.5472012993
 30
0.0
 11
80.3626517
 21
204.5472012993
 31
0.0
  0
LINE
  5
1D6
330
1B0
100
AcDbEntity
  8
MEGA_002187
  6
CONTINUOUS
 62
     7
 48
25.4
100
AcDbLine
 10
80.3626517
 20
204.5472012993
 30
0.0
 11
78.3151517
 21
243.5472012993
 31
0.0
  0
LINE
  5
1D7
330
1B0
100
AcDbEntity
  8
MEGA_002187
  6
CONTINUOUS
 62
     7
 48
25.4
100
AcDbLine
 10
78.3151517
 20
243.5472012993
 30
0.0
 11
74.1675356694
 21
243.5472012993
 31
0.0
  0
LINE
  5
1D8
330
1B0
100
AcDbEntity
  8
MEGA_002187
  6
CONTINUOUS
 62
     7
 48
25.4
100
AcDbLine
 10
74.1675356694
 20
165.5472012993
 30
0.0
 11
78.3151517
 21
165.5472012993
 31
0.0
  0
LINE
  5
1D9
330
1B0
100
AcDbEntity
  8
MEGA_002187
  6
CONTINUOUS
 62
     7
 48
25.4
100
AcDbLine
 10
72.1200356694
 20
204.5472012993
 30
0.0
 11
74.1675356694
 21
165.5472012993
 31
0.0
  0
LINE
  5
1DA
330
1B0
100
AcDbEntity
  8
MEGA_002187
  6
CONTINUOUS
 62
     7
 48
25.4
100
AcDbLine
 10
69.1440728018
 20
204.4952181153
 30
0.0
 11
69.180374855
 21
203.8037504358
 31
0.0
  0
LINE
  5
1DB
330
1B0
100
AcDbEntity
  8
MEGA_002187
  6
CONTINUOUS
 62
     7
 48
25.4
100
AcDbLine
 10
69.1440728018
 20
204.5991844833
 30
0.0
 11
69.180374855
 21
205.2906521629
 31
0.0
  0
LINE
  5
1DC
330
1B0
100
AcDbEntity
  8
MEGA_002187
  6
CONTINUOUS
 62
     7
 48
25.4
100
AcDbLine
 10
81.1428075853
 20
243.5991844833
 30
0.0
 11
79.3053075853
 21
243.5991844833
 31
0.0
  0
LINE
  5
1DD
330
1B0
100
AcDbEntity
  8
MEGA_002187
  6
CONTINUOUS
 62
     7
 48
25.4
100
AcDbLine
 10
81.3528075853
 20
204.5991844833
 30
0.0
 11
83.3386145675
 21
204.5991844833
 31
0.0
  0
LINE
  5
1DE
330
1B0
100
AcDbEntity
  8
MEGA_002187
  6
CONTINUOUS
 62
     7
 48
25.4
100
AcDbLine
 10
71.3398797841
 20
243.5991844833
 30
0.0
 11
69.3332253231
 21
205.3771947504
 31
0.0
  0
ELLIPSE
  5
1DF
330
1B0
100
AcDbEntity
  8
MEGA_002187
  6
CONTINUOUS
 62
     7
 48
25.4
100
AcDbEllipse
 10
72.1205412243
 20
204.7635434282
 30
0.0
 11
-4.15470380445674
 21
0.2181219499480424
 31
0.0
210
0.0
220
0.0
230
1.0
 40
0.1274869252
 41
5.463775920950709
 42
5.505256931503675
  0
ARC
  5
1E0
330
1B0
100
AcDbEntity
  8
MEGA_002187
  6
CONTINUOUS
 62
     7
 48
25.4
100
AcDbCircle
 10
75.7964119991
 20
203.5926600128
 30
0.0
 40
6.494920760500009
100
AcDbArc
 50
178.2155834841
 51
237.4935122533
  0
SPLINE
  5
1E1
330
1B0
100
AcDbEntity
  8
MEGA_002187
  6
CONTINUOUS
 62
     7
 48
25.4
100
AcDbSpline
210
0.0
220
0.0
230
1.0
 70
     8
 71
     3
 72
    10
 73
     6
 74
     0
 42
0.0000000001
 43
0.0000000001
 40
0.0
 40
0.0
 40
0.0
 40
0.0
 40
0.5
 40
0.5
 40
1.0
 40
1.0
 40
1.0
 40
1.0
 10
83.17804652670904
 20
205.2994978392672
 30
0.0
 10
83.17339148763628
 20
205.2998059248804
 30
0.0
 10
83.16850314692778
 20
205.3040830944618
 30
0.0
 10
83.15863216337702
 20
205.3268877782367
 30
0.0
 10
83.15348801599592
 20
205.3473144010705
 30
0.0
 10
83.14946204625645
 20
205.3771947504476
 30
0.0
  0
ARC
  5
1E2
330
1B0
100
AcDbEntity
  8
MEGA_002187
  6
CONTINUOUS
 62
     7
 48
25.4
100
AcDbCircle
 10
95.3755593893
 20
204.0681115458
 30
0.0
 40
26.04490660710002
100
AcDbArc
 50
180.7718463919
 51
199.0258077874
  0
SPLINE
  5
1E3
330
1B0
100
AcDbEntity
  8
MEGA_002187
  6
CONTINUOUS
 62
     7
 48
25.4
100
AcDbSpline
210
0.0
220
0.0
230
1.0
 70
     8
 71
     3
 72
    10
 73
     6
 74
     0
 42
0.0000000001
 43
0.0000000001
 40
0.0
 40
0.0
 40
0.0
 40
0.0
 40
0.5
 40
0.5
 40
1.0
 40
1.0
 40
1.0
 40
1.0
 10
83.14946204625645
 20
203.7172078482552
 30
0.0
 10
83.15345904561266
 20
203.7468731853039
 30
0.0
 10
83.15863066435439
 20
203.767571230629
 30
0.0
 10
83.16862626245886
 20
203.7905433282855
 30
0.0
 10
83.17339429117595
 20
203.7945968593697
 30
0.0
 10
83.17804652670904
 20
203.7949047594354
 30
0.0
  0
SPLINE
  5
1E4
330
1B0
100
AcDbEntity
  8
MEGA_002187
  6
CONTINUOUS
 62
     7
 48
25.4
100
AcDbSpline
210
0.0
220
0.0
230
1.0
 70
     8
 71
     3
 72
    10
 73
     6
 74
     0
 42
0.0000000001
 43
0.0000000001
 40
0.0
 40
0.0
 40
0.0
 40
0.0
 40
0.5
 40
0.5
 40
1.0
 40
1.0
 40
1.0
 40
1.0
 10
69.30464084265783
 20
203.7949047594352
 30
0.0
 10
69.30929307818946
 20
203.7945968593814
 30
0.0
 10
69.31406110690739
 20
203.790543328288
 30
0.0
 10
69.32405670500977
 20
203.7675712306686
 30
0.0
 10
69.32922832375202
 20
203.746873185302
 30
0.0
 10
69.3332253231079
 20
203.717207848255
 30
0.0
  0
ARC
  5
1E5
330
1B0
100
AcDbEntity
  8
MEGA_002187
  6
CONTINUOUS
 62
     7
 48
25.4
100
AcDbCircle
 10
80.1526517
 20
165.5472012993
 30
0.0
 40
1.0
100
AcDbArc
 50
270.0
 51
356.9947306403
  0
SPLINE
  5
1E6
330
1B0
100
AcDbEntity
  8
MEGA_002187
  6
CONTINUOUS
 62
     7
 48
25.4
100
AcDbSpline
210
0.0
220
0.0
230
1.0
 70
     8
 71
     3
 72
    10
 73
     6
 74
     0
 42
0.0000000001
 43
0.0000000001
 40
0.0
 40
0.0
 40
0.0
 40
0.0
 40
0.5
 40
0.5
 40
1.0
 40
1.0
 40
1.0
 40
1.0
 10
69.3332253231079
 20
205.3771947504478
 30
0.0
 10
69.32919935336851
 20
205.3473144010702
 30
0.0
 10
69.32405520598734
 20
205.326887778266
 30
0.0
 10
69.31418422243657
 20
205.3040830944665
 30
0.0
 10
69.30929588172808
 20
205.2998059248805
 30
0.0
 10
69.3046408426553
 20
205.2994978392673
 30
0.0
  0
ARC
  5
1E7
330
1B0
100
AcDbEntity
  8
MEGA_002187
  6
CONTINUOUS
 62
     7
 48
25.4
100
AcDbCircle
 10
76.6862753703
 20
205.5017425859
 30
0.0
 40
6.494920760500009
100
AcDbArc
 50
358.2155834842
 51
57.4935122533
  0
LINE
  5
1E8
330
1B0
100
AcDbEntity
  8
MEGA_002187
  6
CONTINUOUS
 62
     7
 48
25.4
100
AcDbLine
 10
83.1494620463
 20
205.3771947504
 30
0.0
 11
81.1428075853
 21
243.5991844833
 31
0.0
  0
LINE
  5
1E9
330
1B0
100
AcDbEntity
  8
MEGA_002187
  6
CONTINUOUS
 62
     7
 48
25.4
100
AcDbLine
 10
69.3332253231
 20
203.7172078482
 30
0.0
 11
71.3398797841
 21
165.4952181153
 31
0.0
  0
ELLIPSE
  5
1EA
330
1B0
100
AcDbEntity
  8
MEGA_002187
  6
CONTINUOUS
 62
     7
 48
25.4
100
AcDbEllipse
 10
72.1205412244
 20
204.3308591705
 30
0.0
 11
-4.154703804510391
 21
-0.2181219499539565
 31
0.0
210
0.0
220
0.0
230
1.0
 40
0.1274869252
 41
0.7779283756692466
 42
0.8194093862227815
  0
LINE
  5
1EB
330
1B0
100
AcDbEntity
  8
MEGA_002187
  6
CONTINUOUS
 62
     7
 48
25.4
100
AcDbLine
 10
83.3023125143
 20
205.2906521629
 30
0.0
 11
83.3386145675
 21
204.5991844833
 31
0.0
  0
LINE
  5
1EC
330
1B0
100
AcDbEntity
  8
MEGA_002187
  6
CONTINUOUS
 62
     7
 48
25.4
100
AcDbLine
 10
81.1428075853
 20
165.4952181153
 30
0.0
 11
83.1494620463
 21
203.7172078482
 31
0.0
  0
ELLIPSE
  5
1ED
330
1B0
100
AcDbEntity
  8
MEGA_002187
  6
CONTINUOUS
 62
     7
 48
25.4
100
AcDbEllipse
 10
80.3621461451
 20
204.3308591704
 30
0.0
 11
4.15470380439895
 21
-0.2181219499393252
 31
0.0
210
0.0
220
0.0
230
1.0
 40
0.1274869252
 41
5.463775920946169
 42
5.50525693149948
  0
ARC
  5
1EE
330
1B0
100
AcDbEntity
  8
MEGA_002187
  6
CONTINUOUS
 62
     7
 48
25.4
100
AcDbCircle
 10
72.3300356694
 20
165.5472012993
 30
0.0
 40
1.0
100
AcDbArc
 50
183.0052693597
 51
270.0
  0
LINE
  5
1EF
330
1B0
100
AcDbEntity
  8
MEGA_002187
  6
CONTINUOUS
 62
     7
 48
25.4
100
AcDbLine
 10
81.1512764172
 20
165.4947735017
 30
0.0
 11
81.1428075853
 21
165.4952181153
 31
0.0
  0
LINE
  5
1F0
330
1B0
100
AcDbEntity
  8
MEGA_002187
  6
CONTINUOUS
 62
     7
 48
25.4
100
AcDbLine
 10
71.3398797841
 20
165.4952181153
 30
0.0
 11
71.3314109521
 21
165.4947735017
 31
0.0
  0
LINE
  5
1F1
330
1B0
100
AcDbEntity
  8
MEGA_002187
  6
CONTINUOUS
 62
     7
 48
25.4
100
AcDbLine
 10
80.1526517
 20
164.5472012993
 30
0.0
 11
78.3151517
 21
164.5472012993
 31
0.0
  0
LINE
  5
1F2
330
1B0
100
AcDbEntity
  8
MEGA_002187
  6
CONTINUOUS
 62
     7
 48
25.4
100
AcDbLine
 10
78.3151517
 20
164.5472012993
 30
0.0
 11
74.1675356694
 21
164.5472012993
 31
0.0
  0
LINE
  5
1F3
330
1B0
100
AcDbEntity
  8
MEGA_002187
  6
CONTINUOUS
 62
     7
 48
25.4
100
AcDbLine
 10
71.3398797841
 20
165.4952181153
 30
0.0
 11
73.1773797841
 21
165.4952181153
 31
0.0
  0
LINE
  5
1F4
330
1B0
100
AcDbEntity
  8
MEGA_002187
  6
CONTINUOUS
 62
     7
 48
25.4
100
AcDbLine
 10
74.1675356694
 20
164.5472012993
 30
0.0
 11
72.3300356694
 21
164.5472012993
 31
0.0
  0
LINE
  5
1F5
330
1B0
100
AcDbEntity
  8
MEGA_002187
  6
CONTINUOUS
 62
     7
 48
25.4
100
AcDbLine
 10
71.1298797841
 20
204.4952181153
 30
0.0
 11
69.1440728018
 21
204.4952181153
 31
0.0
  0
LINE
  5
1F6
330
1B0
100
AcDbEntity
  8
MEGA_002187
  6
CONTINUOUS
 62
     7
 48
25.4
100
AcDbLine
 10
74.1675356694
 20
244.5472012993
 30
0.0
 11
78.3151517
 21
244.5472012993
 31
0.0
  0
LINE
  5
1F7
330
1B0
100
AcDbEntity
  8
MEGA_002187
  6
CONTINUOUS
 62
     7
 48
25.4
100
AcDbLine
 10
73.1773797841
 20
165.4952181153
 30
0.0
 11
71.1298797841
 21
204.4952181153
 31
0.0
  0
ARC
  5
1F8
330
1B0
100
AcDbEntity
  8
MEGA_002187
  6
CONTINUOUS
 62
     7
 48
25.4
100
AcDbCircle
 10
76.2413436847
 20
204.5472012993
 30
0.0
 40
7.100000000000023
100
AcDbArc
 50
180.0
 51
186.0105387194
  0
ARC
  5
1F9
330
1B0
100
AcDbEntity
  8
MEGA_002187
  6
CONTINUOUS
 62
     7
 48
25.4
100
AcDbCircle
 10
76.2413436847
 20
204.5472012993
 30
0.0
 40
7.100000000000023
100
AcDbArc
 50
173.9894612806
 51
180.0
  0
ARC
  5
1FA
330
1B0
100
AcDbEntity
  8
MEGA_002187
  6
CONTINUOUS
 62
     7
 48
25.4
100
AcDbCircle
 10
76.2413436847
 20
204.5472012993
 30
0.0
 40
7.100000000000023
100
AcDbArc
 50
0.0
 51
6.0105387194
  0
ARC
  5
1FB
330
1B0
100
AcDbEntity
  8
MEGA_002187
  6
CONTINUOUS
 62
     7
 48
25.4
100
AcDbCircle
 10
76.2413436847
 20
204.5472012993
 30
0.0
 40
7.100000000000023
100
AcDbArc
 50
353.9894612806
 51
360.0
  0
ARC
  5
1FC
330
1B0
100
AcDbEntity
  8
MEGA_002187
  6
CONTINUOUS
 62
     7
 48
25.4
100
AcDbCircle
 10
76.2413436847
 20
204.5472012993
 30
0.0
 40
11.0
100
AcDbArc
 50
126.1832423008
 51
233.8167576992
  0
ARC
  5
1FD
330
1B0
100
AcDbEntity
  8
MEGA_002187
  6
CONTINUOUS
 62
     7
 48
25.4
100
AcDbCircle
 10
76.2413436847
 20
204.5472012993
 30
0.0
 40
11.0
100
AcDbArc
 50
306.1832423008
 51
53.8167576992
  0
LINE
  5
1FE
330
1B0
100
AcDbEntity
  8
MEGA_002187
  6
CONTINUOUS
 62
     7
 48
25.4
100
AcDbLine
 10
83.1320519137
 20
205.8705720218
 30
0.0
 11
81.1512764173
 21
243.599629097
 31
0.0
  0
ELLIPSE
  5
1FF
330
1B0
100
AcDbEntity
  8
MEGA_002187
  6
CONTINUOUS
 62
     7
 48
25.4
100
AcDbEllipse
 10
82.3314017
 20
204.5472012993
 30
0.0
 11
-1.008576503047736
 21
2.561755459697411E-15
 31
0.0
210
0.0
220
0.0
230
1.0
 40
0.9914964279
 41
3.089586029156512
 42
3.193599278023083
  0
ELLIPSE
  5
200
330
1B0
100
AcDbEntity
  8
MEGA_002187
  6
CONTINUOUS
 62
     7
 48
25.4
100
AcDbEllipse
 10
70.1512856694
 20
204.5472012993
 30
0.0
 11
1.008576503047736
 21
2.438244540302590E-15
 31
0.0
210
0.0
220
0.0
230
1.0
 40
0.9914964279
 41
3.089586029156503
 42
3.193599278023074
  0
LINE
  5
201
330
1B0
100
AcDbEntity
  8
MEGA_002187
  6
CONTINUOUS
 62
     7
 48
25.4
100
AcDbLine
 10
83.3386145675
 20
204.4952181153
 30
0.0
 11
83.3023125143
 21
203.8037504358
 31
0.0
  0
ELLIPSE
  5
202
330
1B0
100
AcDbEntity
  8
MEGA_002187
  6
CONTINUOUS
 62
     7
 48
25.4
100
AcDbEllipse
 10
72.3300356694
 20
165.5472012993
 30
0.0
 11
1.643876968230888E-14
 21
-1.000000000000008
 31
0.0
210
0.0
220
0.0
230
1.0
 40
0.9914964279
 41
4.764395604817665
 42
6.283185307179586
  0
ELLIPSE
  5
203
330
1B0
100
AcDbEntity
  8
MEGA_002187
  6
CONTINUOUS
 62
     7
 48
25.4
100
AcDbEllipse
 10
80.1526517
 20
165.5472012993
 30
0.0
 11
-1.335387696823089E-13
 21
1.000000000000001
 31
0.0
210
0.0
220
0.0
230
1.0
 40
0.9914964279
 41
3.141592653589793
 42
4.660382355951509
  0
ELLIPSE
  5
204
330
1B0
100
AcDbEntity
  8
MEGA_002187
  6
CONTINUOUS
 62
     7
 48
25.4
100
AcDbEllipse
 10
74.1675356694
 20
165.5472012993
 30
0.0
 11
4.413876968230888E-14
 21
-1.000000000000008
 31
0.0
210
0.0
220
0.0
230
1.0
 40
0.9914964279
 41
4.764395604817637
 42
6.283185307179586
  0
LINE
  5
205
330
1B0
100
AcDbEntity
  8
MEGA_002187
  6
CONTINUOUS
 62
     7
 48
25.4
100
AcDbLine
 10
74.1675356694
 20
164.5472012993
 30
0.0
 11
74.1675356694
 21
165.5472012993
 31
0.0
  0
LINE
  5
206
330
1B0
100
AcDbEntity
  8
MEGA_002187
  6
CONTINUOUS
 62
     7
 48
25.4
100
AcDbLine
 10
74.1675356694
 20
165.5472012993
 30
0.0
 11
73.1773797841
 21
165.4952181153
 31
0.0
  0
ELLIPSE
  5
207
330
1B0
100
AcDbEntity
  8
MEGA_002187
  6
CONTINUOUS
 62
     7
 48
25.4
100
AcDbEllipse
 10
78.3151517
 20
165.5472012993
 30
0.0
 11
3.306123031769112E-14
 21
0.999999999999994
 31
0.0
210
0.0
220
0.0
230
0.9999999999999999
 40
0.9914964279
 41
3.141592653589798
 42
4.660382355951731
  0
CIRCLE
  5
208
330
1B0
100
AcDbEntity
  8
MEGA_001982
  6
CONTINUOUS
 62
     7
 48
25.4
100
AcDbCircle
 10
97.7413436847
 20
204.5472012993
 30
0.0
 40
2.399999999999977
  0
CIRCLE
  5
209
330
1B0
100
AcDbEntity
  8
MEGA_001982
  6
CONTINUOUS
 62
     7
 48
25.4
100
AcDbCircle
 10
54.7413436847
 20
204.5472012993
 30
0.0
 40
2.399999999999977
  0
CIRCLE
  5
20A
330
1B0
100
AcDbEntity
  8
MEGA_001982
  6
CONTINUOUS
 62
     7
 48
25.4
100
AcDbCircle
 10
97.7413436847
 20
204.5472012993
 30
0.0
 40
4.125
  0
CIRCLE
  5
20B
330
1B0
100
AcDbEntity
  8
MEGA_001982
  6
CONTINUOUS
 62
     7
 48
25.4
100
AcDbCircle
 10
54.7413436847
 20
204.5472012993
 30
0.0
 40
4.125
  0
LINE
  5
20C
330
1B0
100
AcDbEntity
  8
MEGA_001982
  6
CONTINUOUS
 62
     7
 48
25.4
100
AcDbLine
 10
82.5247023927
 20
191.6552682711
 30
0.0
 11
107.2413436847
 21
194.0472012993
 31
0.0
  0
LINE
  5
20D
330
1B0
100
AcDbEntity
  8
MEGA_001982
  6
CONTINUOUS
 62
     7
 48
25.4
100
AcDbLine
 10
107.2413436847
 20
215.0472012993
 30
0.0
 11
82.5247023927
 21
217.4391343276
 31
0.0
  0
LINE
  5
20E
330
1B0
100
AcDbEntity
  8
MEGA_001982
  6
CONTINUOUS
 62
     7
 48
25.4
100
AcDbLine
 10
107.2413436847
 20
194.0472012993
 30
0.0
 11
107.2413436847
 21
215.0472012993
 31
0.0
  0
LINE
  5
20F
330
1B0
100
AcDbEntity
  8
MEGA_001982
  6
CONTINUOUS
 62
     7
 48
25.4
100
AcDbLine
 10
45.2413436847
 20
215.0472012993
 30
0.0
 11
45.2413436847
 21
194.0472012993
 31
0.0
  0
ARC
  5
210
330
1B0
100
AcDbEntity
  8
MEGA_001982
  6
CONTINUOUS
 62
     7
 48
25.4
100
AcDbCircle
 10
76.2413436847
 20
204.5472012993
 30
0.0
 40
13.0
100
AcDbArc
 50
119.3157589811
 51
240.6842410189
  0
ARC
  5
211
330
1B0
100
AcDbEntity
  8
MEGA_001982
  6
CONTINUOUS
 62
     7
 48
25.4
100
AcDbCircle
 10
76.2413436847
 20
204.5472012993
 30
0.0
 40
13.0
100
AcDbArc
 50
299.3157589811
 51
60.6842410189
  0
CIRCLE
  5
212
330
1B0
100
AcDbEntity
  8
MEGA_001982
  6
CONTINUOUS
 62
     7
 48
25.4
100
AcDbCircle
 10
54.7413436847
 20
204.5472012993
 30
0.0
 40
2.500522158600006
  0
LINE
  5
213
330
1B0
100
AcDbEntity
  8
MEGA_001982
  6
CONTINUOUS
 62
     7
 48
25.4
100
AcDbLine
 10
106.891709625
 20
214.7297694049
 30
0.0
 11
107.2413436847
 21
215.0472012993
 31
0.0
  0
LINE
  5
214
330
1B0
100
AcDbEntity
  8
MEGA_001982
  6
CONTINUOUS
 62
     7
 48
25.4
100
AcDbLine
 10
106.891709625
 20
194.3646331937
 30
0.0
 11
107.2413436847
 21
194.0472012993
 31
0.0
  0
ARC
  5
215
330
1B0
100
AcDbEntity
  8
MEGA_001982
  6
CONTINUOUS
 62
     7
 48
25.4
100
AcDbCircle
 10
76.2413436847
 20
204.5472012993
 30
0.0
 40
11.0
100
AcDbArc
 50
126.1832423008
 51
233.8167576992
  0
ARC
  5
216
330
1B0
100
AcDbEntity
  8
MEGA_001982
  6
CONTINUOUS
 62
     7
 48
25.4
100
AcDbCircle
 10
76.2413436847
 20
204.5472012993
 30
0.0
 40
11.0
100
AcDbArc
 50
306.1832423008
 51
53.8167576992
  0
LINE
  5
217
330
1B0
100
AcDbEntity
  8
MEGA_001982
  6
CONTINUOUS
 62
     7
 48
25.4
100
AcDbLine
 10
45.5909777444
 20
214.7297694049
 30
0.0
 11
45.2413436847
 21
215.0472012993
 31
0.0
  0
LINE
  5
218
330
1B0
100
AcDbEntity
  8
MEGA_001982
  6
CONTINUOUS
 62
     7
 48
25.4
100
AcDbLine
 10
45.5909777444
 20
194.3646331937
 30
0.0
 11
45.2413436847
 21
194.0472012993
 31
0.0
  0
LINE
  5
219
330
1B0
100
AcDbEntity
  8
MEGA_001982
  6
CONTINUOUS
 62
     7
 48
25.4
100
AcDbLine
 10
45.5909777444
 20
194.3646331937
 30
0.0
 11
69.9394492622
 21
192.0083294985
 31
0.0
  0
LINE
  5
21A
330
1B0
100
AcDbEntity
  8
MEGA_001982
  6
CONTINUOUS
 62
     7
 48
25.4
100
AcDbLine
 10
69.9579849767
 20
217.4391343276
 30
0.0
 11
45.2413436847
 21
215.0472012993
 31
0.0
  0
LINE
  5
21B
330
1B0
100
AcDbEntity
  8
MEGA_001982
  6
CONTINUOUS
 62
     7
 48
25.4
100
AcDbLine
 10
45.2413436847
 20
194.0472012993
 30
0.0
 11
69.9579849767
 21
191.6552682711
 31
0.0
  0
LINE
  5
21C
330
1B0
100
AcDbEntity
  8
MEGA_001982
  6
CONTINUOUS
 62
     7
 48
25.4
100
AcDbLine
 10
82.5432381071
 20
192.0083294985
 30
0.0
 11
106.891709625
 21
194.3646331937
 31
0.0
  0
LINE
  5
21D
330
1B0
100
AcDbEntity
  8
MEGA_001982
  6
CONTINUOUS
 62
     7
 48
25.4
100
AcDbLine
 10
106.891709625
 20
214.7297694049
 30
0.0
 11
82.5432381071
 21
217.0860731002
 31
0.0
  0
LINE
  5
21E
330
1B0
100
AcDbEntity
  8
MEGA_001982
  6
CONTINUOUS
 62
     7
 48
25.4
100
AcDbLine
 10
45.5909777444
 20
214.7297694049
 30
0.0
 11
45.5909777444
 21
194.3646331937
 31
0.0
  0
LINE
  5
21F
330
1B0
100
AcDbEntity
  8
MEGA_001982
  6
CONTINUOUS
 62
     7
 48
25.4
100
AcDbLine
 10
69.9394492622
 20
217.0860731002
 30
0.0
 11
45.5909777444
 21
214.7297694049
 31
0.0
  0
LINE
  5
220
330
1B0
100
AcDbEntity
  8
MEGA_001982
  6
CONTINUOUS
 62
     7
 48
25.4
100
AcDbLine
 10
106.891709625
 20
194.3646331937
 30
0.0
 11
106.891709625
 21
214.7297694049
 31
0.0
  0
CIRCLE
  5
221
330
1B0
100
AcDbEntity
  8
MEGA_001982
  6
CONTINUOUS
 62
     7
 48
25.4
100
AcDbCircle
 10
97.7413436847
 20
204.5472012993
 30
0.0
 40
2.500522158600006
  0
ENDBLK
  5
223
330
1B0
100
AcDbEntity
  8
0
100
AcDbBlockEnd
  0
BLOCK
  5
22C
330
224
100
AcDbEntity
  8
0
100
AcDbBlockBegin
  2
SE11
 70
     0
 71
     0
 10
0.0
 20
0.0
 30
0.0
  3
SE11
  1

  0
POLYLINE
  5
226
330
224
100
AcDbEntity
  8
DEFAULT
  6
CONTINUOUS
 62
     7
 48
25.4
100
AcDb2dPolyline
 66
     1
 10
0.0
 20
0.0
 30
0.0
 70
     1
  0
VERTEX
  5
263
330
226
100
AcDbEntity
  8
DEFAULT
  6
CONTINUOUS
 62
     7
100
AcDbVertex
100
AcDb2dVertex
 10
37.1615809667
 20
101.5664134051
 30
0.0
  0
VERTEX
  5
264
330
226
100
AcDbEntity
  8
DEFAULT
  6
CONTINUOUS
 62
     7
100
AcDbVertex
100
AcDb2dVertex
 10
37.6615809711
 20
104.5664134312
 30
0.0
  0
VERTEX
  5
265
330
226
100
AcDbEntity
  8
DEFAULT
  6
CONTINUOUS
 62
     7
100
AcDbVertex
100
AcDb2dVertex
 10
38.1615809754
 20
101.5664134051
 30
0.0
  0
VERTEX
  5
266
330
226
100
AcDbEntity
  8
DEFAULT
  6
CONTINUOUS
 62
     7
100
AcDbVertex
100
AcDb2dVertex
 10
37.1615809667
 20
101.5664134051
 30
0.0
  0
SEQEND
  5
262
330
226
100
AcDbEntity
  8
DEFAULT
  6
CONTINUOUS
 62
     7
 48
25.4
  0
LINE
  5
227
330
224
100
AcDbEntity
  8
DEFAULT
  6
CONTINUOUS
 62
     7
 48
25.4
100
AcDbLine
 10
72.1200356694
 20
51.0664134312
 30
0.0
 11
36.161580958
 21
51.0664134312
 31
0.0
  0
LINE
  5
228
330
224
100
AcDbEntity
  8
DEFAULT
  6
CONTINUOUS
 62
     7
 48
25.4
100
AcDbLine
 10
45.2413436847
 20
104.5664134312
 30
0.0
 11
36.161580958
 21
104.5664134312
 31
0.0
  0
LINE
  5
229
330
224
100
AcDbEntity
  8
DEFAULT
  6
CONTINUOUS
 62
     7
 48
25.4
100
AcDbLine
 10
37.6615809711
 20
51.0664134312
 30
0.0
 11
37.6615809711
 21
104.5664138186
 31
0.0
  0
TEXT
  5
22B
330
224
100
AcDbEntity
  8
DEFAULT
  6
CONTINUOUS
 62
     7
 48
25.4
100
AcDbText
 10
36.9115809711
 20
75.0550499885
 30
0.0
 40
3.0
  1
53,5
 50
90.0
  7
SEACAD_SEISO_TTF
 11
33.9115809711
 21
75.0550499885
 31
0.0
100
AcDbText
 73
     3
  0
ENDBLK
  5
22D
330
224
100
AcDbEntity
  8
0
100
AcDbBlockEnd
  0
BLOCK
  5
236
330
22E
100
AcDbEntity
  8
0
100
AcDbBlockBegin
  2
SE12
 70
     0
 71
     0
 10
0.0
 20
0.0
 30
0.0
  3
SE12
  1

  0
POLYLINE
  5
230
330
22E
100
AcDbEntity
  8
DEFAULT
  6
CONTINUOUS
 62
     7
 48
25.4
100
AcDb2dPolyline
 66
     1
 10
0.0
 20
0.0
 30
0.0
 70
     1
  0
VERTEX
  5
268
330
230
100
AcDbEntity
  8
DEFAULT
  6
CONTINUOUS
 62
     7
100
AcDbVertex
100
AcDb2dVertex
 10
37.1783006486
 20
136.5664134051
 30
0.0
  0
VERTEX
  5
269
330
230
100
AcDbEntity
  8
DEFAULT
  6
CONTINUOUS
 62
     7
100
AcDbVertex
100
AcDb2dVertex
 10
37.678300653
 20
139.5664134312
 30
0.0
  0
VERTEX
  5
26A
330
230
100
AcDbEntity
  8
DEFAULT
  6
CONTINUOUS
 62
     7
100
AcDbVertex
100
AcDb2dVertex
 10
38.1783006573
 20
136.5664134051
 30
0.0
  0
VERTEX
  5
26B
330
230
100
AcDbEntity
  8
DEFAULT
  6
CONTINUOUS
 62
     7
100
AcDbVertex
100
AcDb2dVertex
 10
37.1783006486
 20
136.5664134051
 30
0.0
  0
SEQEND
  5
267
330
230
100
AcDbEntity
  8
DEFAULT
  6
CONTINUOUS
 62
     7
 48
25.4
  0
POLYLINE
  5
231
330
22E
100
AcDbEntity
  8
DEFAULT
  6
CONTINUOUS
 62
     7
 48
25.4
100
AcDb2dPolyline
 66
     1
 10
0.0
 20
0.0
 30
0.0
 70
     1
  0
VERTEX
  5
26D
330
231
100
AcDbEntity
  8
DEFAULT
  6
CONTINUOUS
 62
     7
100
AcDbVertex
100
AcDb2dVertex
 10
37.1783006486
 20
107.5664134573
 30
0.0
  0
VERTEX
  5
26E
330
231
100
AcDbEntity
  8
DEFAULT
  6
CONTINUOUS
 62
     7
100
AcDbVertex
100
AcDb2dVertex
 10
37.678300653
 20
104.5664134312
 30
0.0
  0
VERTEX
  5
26F
330
231
100
AcDbEntity
  8
DEFAULT
  6
CONTINUOUS
 62
     7
100
AcDbVertex
100
AcDb2dVertex
 10
38.1783006573
 20
107.5664134573
 30
0.0
  0
VERTEX
  5
270
330
231
100
AcDbEntity
  8
DEFAULT
  6
CONTINUOUS
 62
     7
100
AcDbVertex
100
AcDb2dVertex
 10
37.1783006486
 20
107.5664134573
 30
0.0
  0
SEQEND
  5
26C
330
231
100
AcDbEntity
  8
DEFAULT
  6
CONTINUOUS
 62
     7
 48
25.4
  0
LINE
  5
232
330
22E
100
AcDbEntity
  8
DEFAULT
  6
CONTINUOUS
 62
     7
 48
25.4
100
AcDbLine
 10
73.0813436847
 20
139.5664134312
 30
0.0
 11
36.1783006399
 21
139.5664134312
 31
0.0
  0
LINE
  5
233
330
22E
100
AcDbEntity
  8
DEFAULT
  6
CONTINUOUS
 62
     7
 48
25.4
100
AcDbLine
 10
45.2413436847
 20
104.5664134312
 30
0.0
 11
36.1783006399
 21
104.5664134312
 31
0.0
  0
LINE
  5
234
330
22E
100
AcDbEntity
  8
DEFAULT
  6
CONTINUOUS
 62
     7
 48
25.4
100
AcDbLine
 10
37.678300653
 20
139.5664134312
 30
0.0
 11
37.678300653
 21
104.5664132821
 31
0.0
  0
TEXT
  5
235
330
22E
100
AcDbEntity
  8
DEFAULT
  6
CONTINUOUS
 62
     7
 48
25.4
100
AcDbText
 10
36.928300653
 20
120.4300497203
 30
0.0
 40
3.0
  1
35
 50
90.0
  7
SEACAD_SEISO_TTF
 11
33.928300653
 21
120.4300497203
 31
0.0
100
AcDbText
 73
     3
  0
ENDBLK
  5
237
330
22E
100
AcDbEntity
  8
0
100
AcDbBlockEnd
  0
BLOCK
  5
240
330
238
100
AcDbEntity
  8
0
100
AcDbBlockBegin
  2
SE13
 70
     0
 71
     0
 10
0.0
 20
0.0
 30
0.0
  3
SE13
  1

  0
POLYLINE
  5
23A
330
238
100
AcDbEntity
  8
DEFAULT
  6
CONTINUOUS
 62
     7
 48
25.4
100
AcDb2dPolyline
 66
     1
 10
0.0
 20
0.0
 30
0.0
 70
     1
  0
VERTEX
  5
272
330
23A
100
AcDbEntity
  8
DEFAULT
  6
CONTINUOUS
 62
     7
100
AcDbVertex
100
AcDb2dVertex
 10
114.5111654992
 20
39.7895833571
 30
0.0
  0
VERTEX
  5
273
330
23A
100
AcDbEntity
  8
DEFAULT
  6
CONTINUOUS
 62
     7
100
AcDbVertex
100
AcDb2dVertex
 10
111.5111654731
 20
40.2895833615
 30
0.0
  0
VERTEX
  5
274
330
23A
100
AcDbEntity
  8
DEFAULT
  6
CONTINUOUS
 62
     7
100
AcDbVertex
100
AcDb2dVertex
 10
114.5111654992
 20
40.7895833658
 30
0.0
  0
VERTEX
  5
275
330
23A
100
AcDbEntity
  8
DEFAULT
  6
CONTINUOUS
 62
     7
100
AcDbVertex
100
AcDb2dVertex
 10
114.5111654992
 20
39.7895833571
 30
0.0
  0
SEQEND
  5
271
330
23A
100
AcDbEntity
  8
DEFAULT
  6
CONTINUOUS
 62
     7
 48
25.4
  0
POLYLINE
  5
23B
330
238
100
AcDbEntity
  8
DEFAULT
  6
CONTINUOUS
 62
     7
 48
25.4
100
AcDb2dPolyline
 66
     1
 10
0.0
 20
0.0
 30
0.0
 70
     1
  0
VERTEX
  5
277
330
23B
100
AcDbEntity
  8
DEFAULT
  6
CONTINUOUS
 62
     7
100
AcDbVertex
100
AcDb2dVertex
 10
188.5111654471
 20
39.7895833571
 30
0.0
  0
VERTEX
  5
278
330
23B
100
AcDbEntity
  8
DEFAULT
  6
CONTINUOUS
 62
     7
100
AcDbVertex
100
AcDb2dVertex
 10
191.5111654731
 20
40.2895833615
 30
0.0
  0
VERTEX
  5
279
330
23B
100
AcDbEntity
  8
DEFAULT
  6
CONTINUOUS
 62
     7
100
AcDbVertex
100
AcDb2dVertex
 10
188.5111654471
 20
40.7895833658
 30
0.0
  0
VERTEX
  5
27A
330
23B
100
AcDbEntity
  8
DEFAULT
  6
CONTINUOUS
 62
     7
100
AcDbVertex
100
AcDb2dVertex
 10
188.5111654471
 20
39.7895833571
 30
0.0
  0
SEQEND
  5
276
330
23B
100
AcDbEntity
  8
DEFAULT
  6
CONTINUOUS
 62
     7
 48
25.4
  0
LINE
  5
23C
330
238
100
AcDbEntity
  8
DEFAULT
  6
CONTINUOUS
 62
     7
 48
25.4
100
AcDbLine
 10
111.5111654731
 20
52.0664134312
 30
0.0
 11
111.5111654731
 21
38.7895833484
 31
0.0
  0
LINE
  5
23D
330
238
100
AcDbEntity
  8
DEFAULT
  6
CONTINUOUS
 62
     7
 48
25.4
100
AcDbLine
 10
191.5111654731
 20
52.0664134312
 30
0.0
 11
191.5111654731
 21
38.7895833484
 31
0.0
  0
LINE
  5
23E
330
238
100
AcDbEntity
  8
DEFAULT
  6
CONTINUOUS
 62
     7
 48
25.4
100
AcDbLine
 10
111.5111654731
 20
40.2895833614
 30
0.0
 11
191.511163685
 21
40.2895833614
 31
0.0
  0
TEXT
  5
23F
330
238
100
AcDbEntity
  8
DEFAULT
  6
CONTINUOUS
 62
     7
 48
25.4
100
AcDbText
 10
153.35207367
 20
39.5395833614
 30
0.0
 40
3.0
  1
80
 50
180.0
  7
SEACAD_SEISO_TTF
 11
153.35207367
 21
36.5395833614
 31
0.0
100
AcDbText
 73
     3
  0
ENDBLK
  5
241
330
238
100
AcDbEntity
  8
0
100
AcDbBlockEnd
  0
BLOCK
  5
24C
330
242
100
AcDbEntity
  8
0
100
AcDbBlockBegin
  2
SE14
 70
     0
 71
     0
 10
0.0
 20
0.0
 30
0.0
  3
SE14
  1

  0
POLYLINE
  5
244
330
242
100
AcDbEntity
  8
DEFAULT
  6
CONTINUOUS
 62
     7
 48
25.4
100
AcDb2dPolyline
 66
     1
 10
0.0
 20
0.0
 30
0.0
 70
     1
  0
VERTEX
  5
27C
330
244
100
AcDbEntity
  8
DEFAULT
  6
CONTINUOUS
 62
     7
100
AcDbVertex
100
AcDb2dVertex
 10
145.0111654471
 20
153.2968138645
 30
0.0
  0
VERTEX
  5
27D
330
244
100
AcDbEntity
  8
DEFAULT
  6
CONTINUOUS
 62
     7
100
AcDbVertex
100
AcDb2dVertex
 10
148.0111654731
 20
152.7968138602
 30
0.0
  0
VERTEX
  5
27E
330
244
100
AcDbEntity
  8
DEFAULT
  6
CONTINUOUS
 62
     7
100
AcDbVertex
100
AcDb2dVertex
 10
145.0111654471
 20
152.2968138558
 30
0.0
  0
VERTEX
  5
27F
330
244
100
AcDbEntity
  8
DEFAULT
  6
CONTINUOUS
 62
     7
100
AcDbVertex
100
AcDb2dVertex
 10
145.0111654471
 20
153.2968138645
 30
0.0
  0
SEQEND
  5
27B
330
244
100
AcDbEntity
  8
DEFAULT
  6
CONTINUOUS
 62
     7
 48
25.4
  0
POLYLINE
  5
245
330
242
100
AcDbEntity
  8
DEFAULT
  6
CONTINUOUS
 62
     7
 48
25.4
100
AcDb2dPolyline
 66
     1
 10
0.0
 20
0.0
 30
0.0
 70
     1
  0
VERTEX
  5
281
330
245
100
AcDbEntity
  8
DEFAULT
  6
CONTINUOUS
 62
     7
100
AcDbVertex
100
AcDb2dVertex
 10
158.0111654992
 20
153.2968138645
 30
0.0
  0
VERTEX
  5
282
330
245
100
AcDbEntity
  8
DEFAULT
  6
CONTINUOUS
 62
     7
100
AcDbVertex
100
AcDb2dVertex
 10
155.0111654731
 20
152.7968138602
 30
0.0
  0
VERTEX
  5
283
330
245
100
AcDbEntity
  8
DEFAULT
  6
CONTINUOUS
 62
     7
100
AcDbVertex
100
AcDb2dVertex
 10
158.0111654992
 20
152.2968138558
 30
0.0
  0
VERTEX
  5
284
330
245
100
AcDbEntity
  8
DEFAULT
  6
CONTINUOUS
 62
     7
100
AcDbVertex
100
AcDb2dVertex
 10
158.0111654992
 20
153.2968138645
 30
0.0
  0
SEQEND
  5
280
330
245
100
AcDbEntity
  8
DEFAULT
  6
CONTINUOUS
 62
     7
 48
25.4
  0
LINE
  5
246
330
242
100
AcDbEntity
  8
DEFAULT
  6
CONTINUOUS
 62
     7
 48
25.4
100
AcDbLine
 10
148.0111654731
 20
137.7766659629
 30
0.0
 11
148.0111654731
 21
154.2968138732
 31
0.0
  0
LINE
  5
247
330
242
100
AcDbEntity
  8
DEFAULT
  6
CONTINUOUS
 62
     7
 48
25.4
100
AcDbLine
 10
155.0111654731
 20
137.7766659629
 30
0.0
 11
155.0111654731
 21
154.2968138732
 31
0.0
  0
LINE
  5
248
330
242
100
AcDbEntity
  8
DEFAULT
  6
CONTINUOUS
 62
     7
 48
25.4
100
AcDbLine
 10
136.3352097454
 20
152.7968138602
 30
0.0
 11
161.0111657414
 21
152.7968138602
 31
0.0
  0
TEXT
  5
249
330
242
100
AcDbEntity
  8
DEFAULT
  6
CONTINUOUS
 62
     7
 48
25.4
100
AcDbText
 10
139.294300939
 20
152.0468138602
 30
0.0
 40
3.0
  1
7
 50
180.0
  7
SEACAD_SEISO_TTF
 11
139.294300939
 21
149.0468138602
 31
0.0
100
AcDbText
 73
     3
  0
TEXT
  5
24B
330
242
100
AcDbEntity
  8
DEFAULT
  6
CONTINUOUS
 62
     7
 48
25.4
100
AcDbText
 10
143.0004144761
 20
152.0468138602
 30
0.0
 40
3.0
  1
q
 50
180.0
  7
SEACAD_SEMECI1_TTF
 11
143.0004144761
 21
149.0468138602
 31
0.0
100
AcDbText
 73
     3
  0
ENDBLK
  5
24D
330
242
100
AcDbEntity
  8
0
100
AcDbBlockEnd
  0
BLOCK
  5
256
330
24E
100
AcDbEntity
  8
0
100
AcDbBlockBegin
  2
SE15
 70
     0
 71
     0
 10
0.0
 20
0.0
 30
0.0
  3
SE15
  1

  0
POLYLINE
  5
250
330
24E
100
AcDbEntity
  8
DEFAULT
  6
CONTINUOUS
 62
     7
 48
25.4
100
AcDb2dPolyline
 66
     1
 10
0.0
 20
0.0
 30
0.0
 70
     1
  0
VERTEX
  5
286
330
250
100
AcDbEntity
  8
DEFAULT
  6
CONTINUOUS
 62
     7
100
AcDbVertex
100
AcDb2dVertex
 10
57.7413437108
 20
259.6142254154
 30
0.0
  0
VERTEX
  5
287
330
250
100
AcDbEntity
  8
DEFAULT
  6
CONTINUOUS
 62
     7
100
AcDbVertex
100
AcDb2dVertex
 10
54.7413436847
 20
259.1142254111
 30
0.0
  0
VERTEX
  5
288
330
250
100
AcDbEntity
  8
DEFAULT
  6
CONTINUOUS
 62
     7
100
AcDbVertex
100
AcDb2dVertex
 10
57.7413437108
 20
258.6142254068
 30
0.0
  0
VERTEX
  5
289
330
250
100
AcDbEntity
  8
DEFAULT
  6
CONTINUOUS
 62
     7
100
AcDbVertex
100
AcDb2dVertex
 10
57.7413437108
 20
259.6142254154
 30
0.0
  0
SEQEND
  5
285
330
250
100
AcDbEntity
  8
DEFAULT
  6
CONTINUOUS
 62
     7
 48
25.4
  0
POLYLINE
  5
251
330
24E
100
AcDbEntity
  8
DEFAULT
  6
CONTINUOUS
 62
     7
 48
25.4
100
AcDb2dPolyline
 66
     1
 10
0.0
 20
0.0
 30
0.0
 70
     1
  0
VERTEX
  5
28B
330
251
100
AcDbEntity
  8
DEFAULT
  6
CONTINUOUS
 62
     7
100
AcDbVertex
100
AcDb2dVertex
 10
94.7413436586
 20
259.6142254154
 30
0.0
  0
VERTEX
  5
28C
330
251
100
AcDbEntity
  8
DEFAULT
  6
CONTINUOUS
 62
     7
100
AcDbVertex
100
AcDb2dVertex
 10
97.7413436847
 20
259.1142254111
 30
0.0
  0
VERTEX
  5
28D
330
251
100
AcDbEntity
  8
DEFAULT
  6
CONTINUOUS
 62
     7
100
AcDbVertex
100
AcDb2dVertex
 10
94.7413436586
 20
258.6142254068
 30
0.0
  0
VERTEX
  5
28E
330
251
100
AcDbEntity
  8
DEFAULT
  6
CONTINUOUS
 62
     7
100
AcDbVertex
100
AcDb2dVertex
 10
94.7413436586
 20
259.6142254154
 30
0.0
  0
SEQEND
  5
28A
330
251
100
AcDbEntity
  8
DEFAULT
  6
CONTINUOUS
 62
     7
 48
25.4
  0
LINE
  5
252
330
24E
100
AcDbEntity
  8
DEFAULT
  6
CONTINUOUS
 62
     7
 48
25.4
100
AcDbLine
 10
54.7413436847
 20
204.5472012993
 30
0.0
 11
54.7413436847
 21
260.6142254241
 31
0.0
  0
LINE
  5
253
330
24E
100
AcDbEntity
  8
DEFAULT
  6
CONTINUOUS
 62
     7
 48
25.4
100
AcDbLine
 10
97.7413436847
 20
204.5472012993
 30
0.0
 11
97.7413436847
 21
260.6142254241
 31
0.0
  0
LINE
  5
254
330
24E
100
AcDbEntity
  8
DEFAULT
  6
CONTINUOUS
 62
     7
 48
25.4
100
AcDbLine
 10
54.7413436847
 20
259.1142254111
 30
0.0
 11
97.741345145
 21
259.1142254111
 31
0.0
  0
TEXT
  5
255
330
24E
100
AcDbEntity
  8
DEFAULT
  6
CONTINUOUS
 62
     7
 48
25.4
100
AcDbText
 10
77.9117989603
 20
258.3642254111
 30
0.0
 40
3.0
  1
43
 50
180.0
  7
SEACAD_SEISO_TTF
 11
77.9117989603
 21
255.3642254111
 31
0.0
100
AcDbText
 73
     3
  0
ENDBLK
  5
257
330
24E
100
AcDbEntity
  8
0
100
AcDbBlockEnd
  0
BLOCK
  5
260
330
258
100
AcDbEntity
  8
0
100
AcDbBlockBegin
  2
SE16
 70
     0
 71
     0
 10
0.0
 20
0.0
 30
0.0
  3
SE16
  1

  0
POLYLINE
  5
25A
330
258
100
AcDbEntity
  8
DEFAULT
  6
CONTINUOUS
 62
     7
 48
25.4
100
AcDb2dPolyline
 66
     1
 10
0.0
 20
0.0
 30
0.0
 70
     1
  0
VERTEX
  5
290
330
25A
100
AcDbEntity
  8
DEFAULT
  6
CONTINUOUS
 62
     7
100
AcDbVertex
100
AcDb2dVertex
 10
48.2413437108
 20
267.5898793022
 30
0.0
  0
VERTEX
  5
291
330
25A
100
AcDbEntity
  8
DEFAULT
  6
CONTINUOUS
 62
     7
100
AcDbVertex
100
AcDb2dVertex
 10
45.2413436847
 20
267.0898792979
 30
0.0
  0
VERTEX
  5
292
330
25A
100
AcDbEntity
  8
DEFAULT
  6
CONTINUOUS
 62
     7
100
AcDbVertex
100
AcDb2dVertex
 10
48.2413437108
 20
266.5898792935
 30
0.0
  0
VERTEX
  5
293
330
25A
100
AcDbEntity
  8
DEFAULT
  6
CONTINUOUS
 62
     7
100
AcDbVertex
100
AcDb2dVertex
 10
48.2413437108
 20
267.5898793022
 30
0.0
  0
SEQEND
  5
28F
330
25A
100
AcDbEntity
  8
DEFAULT
  6
CONTINUOUS
 62
     7
 48
25.4
  0
POLYLINE
  5
25B
330
258
100
AcDbEntity
  8
DEFAULT
  6
CONTINUOUS
 62
     7
 48
25.4
100
AcDb2dPolyline
 66
     1
 10
0.0
 20
0.0
 30
0.0
 70
     1
  0
VERTEX
  5
295
330
25B
100
AcDbEntity
  8
DEFAULT
  6
CONTINUOUS
 62
     7
100
AcDbVertex
100
AcDb2dVertex
 10
104.2413436586
 20
267.5898793022
 30
0.0
  0
VERTEX
  5
296
330
25B
100
AcDbEntity
  8
DEFAULT
  6
CONTINUOUS
 62
     7
100
AcDbVertex
100
AcDb2dVertex
 10
107.2413436847
 20
267.0898792979
 30
0.0
  0
VERTEX
  5
297
330
25B
100
AcDbEntity
  8
DEFAULT
  6
CONTINUOUS
 62
     7
100
AcDbVertex
100
AcDb2dVertex
 10
104.2413436586
 20
266.5898792935
 30
0.0
  0
VERTEX
  5
298
330
25B
100
AcDbEntity
  8
DEFAULT
  6
CONTINUOUS
 62
     7
100
AcDbVertex
100
AcDb2dVertex
 10
104.2413436586
 20
267.5898793022
 30
0.0
  0
SEQEND
  5
294
330
25B
100
AcDbEntity
  8
DEFAULT
  6
CONTINUOUS
 62
     7
 48
25.4
  0
LINE
  5
25C
330
258
100
AcDbEntity
  8
DEFAULT
  6
CONTINUOUS
 62
     7
 48
25.4
100
AcDbLine
 10
45.2413436847
 20
215.0472012993
 30
0.0
 11
45.2413436847
 21
268.5898793109
 31
0.0
  0
LINE
  5
25D
330
258
100
AcDbEntity
  8
DEFAULT
  6
CONTINUOUS
 62
     7
 48
25.4
100
AcDbLine
 10
107.2413436847
 20
215.0472012993
 30
0.0
 11
107.2413436847
 21
268.5898793109
 31
0.0
  0
LINE
  5
25E
330
258
100
AcDbEntity
  8
DEFAULT
  6
CONTINUOUS
 62
     7
 48
25.4
100
AcDbLine
 10
45.2413436847
 20
267.0898792979
 30
0.0
 11
107.2413426714
 21
267.0898792979
 31
0.0
  0
TEXT
  5
25F
330
258
100
AcDbEntity
  8
DEFAULT
  6
CONTINUOUS
 62
     7
 48
25.4
100
AcDbText
 10
78.0822522689
 20
266.3398792979
 30
0.0
 40
3.0
  1
62
 50
180.0
  7
SEACAD_SEISO_TTF
 11
78.0822522689
 21
263.3398792979
 31
0.0
100
AcDbText
 73
     3
  0
ENDBLK
  5
261
330
258
100
AcDbEntity
  8
0
100
AcDbBlockEnd
  0
ENDSEC
  0
SECTION
  2
ENTITIES
  0
INSERT
  5
2F
330
1F
100
AcDbEntity
  8
0
100
AcDbBlockReference
  2
SE
 10
0.0
 20
0.0
 30
0.0
  0
INSERT
  5
36
330
1F
100
AcDbEntity
  8
0
100
AcDbBlockReference
  2
SE1
 10
0.0
 20
0.0
 30
0.0
  0
INSERT
  5
3B
330
1F
100
AcDbEntity
  8
0
100
AcDbBlockReference
  2
SE2
 10
0.0
 20
0.0
 30
0.0
  0
INSERT
  5
40
330
1F
100
AcDbEntity
  8
0
100
AcDbBlockReference
  2
SE3
 10
0.0
 20
0.0
 30
0.0
  0
INSERT
  5
45
330
1F
100
AcDbEntity
  8
0
100
AcDbBlockReference
  2
SE4
 10
0.0
 20
0.0
 30
0.0
  0
INSERT
  5
4F
330
1F
100
AcDbEntity
  8
0
100
AcDbBlockReference
  2
SE5
 10
0.0
 20
0.0
 30
0.0
  0
INSERT
  5
59
330
1F
100
AcDbEntity
  8
0
100
AcDbBlockReference
  2
SE6
 10
0.0
 20
0.0
 30
0.0
  0
INSERT
  5
5E
330
1F
100
AcDbEntity
  8
0
100
AcDbBlockReference
  2
SE7
 10
0.0
 20
0.0
 30
0.0
  0
INSERT
  5
63
330
1F
100
AcDbEntity
  8
0
100
AcDbBlockReference
  2
SE8
 10
0.0
 20
0.0
 30
0.0
  0
INSERT
  5
165
330
1F
100
AcDbEntity
  8
0
100
AcDbBlockReference
  2
SE9
 10
0.0
 20
0.0
 30
0.0
  0
INSERT
  5
1B1
330
1F
100
AcDbEntity
  8
0
100
AcDbBlockReference
  2
SE10
 10
0.0
 20
0.0
 30
0.0
  0
INSERT
  5
225
330
1F
100
AcDbEntity
  8
0
100
AcDbBlockReference
  2
SE11
 10
0.0
 20
0.0
 30
0.0
  0
INSERT
  5
22F
330
1F
100
AcDbEntity
  8
0
100
AcDbBlockReference
  2
SE12
 10
0.0
 20
0.0
 30
0.0
  0
INSERT
  5
239
330
1F
100
AcDbEntity
  8
0
100
AcDbBlockReference
  2
SE13
 10
0.0
 20
0.0
 30
0.0
  0
INSERT
  5
243
330
1F
100
AcDbEntity
  8
0
100
AcDbBlockReference
  2
SE14
 10
0.0
 20
0.0
 30
0.0
  0
INSERT
  5
24F
330
1F
100
AcDbEntity
  8
0
100
AcDbBlockReference
  2
SE15
 10
0.0
 20
0.0
 30
0.0
  0
INSERT
  5
259
330
1F
100
AcDbEntity
  8
0
100
AcDbBlockReference
  2
SE16
 10
0.0
 20
0.0
 30
0.0
  0
ENDSEC
  0
SECTION
  2
OBJECTS
  0
DICTIONARY
  5
C
330
0
100
AcDbDictionary
  3
ACAD_GROUP
350
D
  3
ACAD_LAYOUT
350
1A
  3
ACAD_MLINESTYLE
350
17
  3
ACAD_PLOTSETTINGS
350
19
  3
ACAD_TABLESTYLE
350
2A
  3
ACDBVARIABLEDICTIONARY
350
2C
1001
ACAD
1000
TREAT_AS_HARD
1070
     0
  0
DICTIONARY
  5
299
330
29
100
AcDbDictionary
  3
ACAD_XREC_ROUNDTRIP
360
29A
  0
DICTIONARY
  5
D
102
{ACAD_REACTORS
330
C
102
}
330
C
100
AcDbDictionary
1001
ACAD
1000
TREAT_AS_HARD
1070
     0
  0
DICTIONARY
  5
1A
102
{ACAD_REACTORS
330
C
102
}
330
C
100
AcDbDictionary
1001
ACAD
1000
TREAT_AS_HARD
1070
     0
  0
DICTIONARY
  5
17
102
{ACAD_REACTORS
330
C
102
}
330
C
100
AcDbDictionary
  3
STANDARD
350
18
1001
ACAD
1000
TREAT_AS_HARD
1070
     0
  0
DICTIONARY
  5
19
102
{ACAD_REACTORS
330
C
102
}
330
C
100
AcDbDictionary
1001
ACAD
1000
TREAT_AS_HARD
1070
     0
  0
DICTIONARY
  5
2A
102
{ACAD_REACTORS
330
C
102
}
330
C
100
AcDbDictionary
  3
STANDARD
350
2B
1001
ACAD
1000
TREAT_AS_HARD
1070
     0
  0
DICTIONARY
  5
2C
102
{ACAD_REACTORS
330
C
102
}
330
C
100
AcDbDictionary
  3
CTABLESTYLE
350
2D
1001
ACAD
1000
TREAT_AS_HARD
1070
     0
  0
XRECORD
  5
29A
102
{ACAD_REACTORS
330
299
102
}
330
299
100
AcDbXrecord
102
UCS
 74
     0
 71
     1
 10
0.0
 20
0.0
 30
0.0
 10
1.0
 20
0.0
 30
0.0
 10
0.0
 20
1.0
 30
0.0
146
0.0
 79
     0
102
VIEW
281
     0
  0
MLINESTYLE
  5
18
102
{ACAD_REACTORS
330
17
102
}
330
17
100
AcDbMlineStyle
  2
Standard
 70
     0
  3

 62
   256
 51
90.0
 52
90.0
 71
     2
 49
0.5
 62
   256
  6
BYLAYER
 49
-0.5
 62
   256
  6
BYLAYER
  0
TABLESTYLE
  5
2B
102
{ACAD_REACTORS
330
2A
102
}
330
2A
100
AcDbTableStyle
  3
Standard
 70
     0
 71
     0
 40
0.06
 41
0.06
280
     0
281
     0
  7
STANDARD
140
0.18
170
     2
 62
     0
 63
     7
283
     0
274
    -2
284
     1
 64
     0
275
    -2
285
     1
 65
     0
276
    -2
286
     1
 66
     0
277
    -2
287
     1
 67
     0
278
    -2
288
     1
 68
     0
279
    -2
289
     1
 69
     0
  7
STANDARD
140
0.25
170
     5
 62
     0
 63
     7
283
     0
274
    -2
284
     1
 64
     0
275
    -2
285
     1
 65
     0
276
    -2
286
     1
 66
     0
277
    -2
287
     1
 67
     0
278
    -2
288
     1
 68
     0
279
    -2
289
     1
 69
     0
  7
STANDARD
140
0.18
170
     5
 62
     0
 63
     7
283
     0
274
    -2
284
     1
 64
     0
275
    -2
285
     1
 65
     0
276
    -2
286
     1
 66
     0
277
    -2
287
     1
 67
     0
278
    -2
288
     1
 68
     0
279
    -2
289
     1
 69
     0
  0
DICTIONARYVAR
  5
2D
102
{ACAD_REACTORS
330
2C
102
}
330
2C
100
DictionaryVariables
280
     0
  1
Standard
  0
ENDSEC
  0
EOF
