  0
SECTION
  2
HEADER
  9
$ACADVER
  1
AC1015
  9
$ACADMAINTVER
 70
     6
  9
$DWGCODEPAGE
  3
ANSI_1252
  9
$INSBASE
 10
0.0
 20
0.0
 30
0.0
  9
$EXTMIN
 10
0.0
 20
0.0
 30
0.0
  9
$EXTMAX
 10
210.0
 20
297.0
 30
0.0
  9
$LIMMIN
 10
0.0
 20
0.0
  9
$LIMMAX
 10
210.0
 20
297.0
  9
$ORTHOMODE
 70
     0
  9
$REGENMODE
 70
     1
  9
$FILLMODE
 70
     1
  9
$QTEXTMODE
 70
     0
  9
$MIRRTEXT
 70
     1
  9
$LTSCALE
 40
1.0
  9
$ATTMODE
 70
     1
  9
$TEXTSIZE
 40
0.2
  9
$TRACEWID
 40
0.05
  9
$TEXTSTYLE
  7
Standard
  9
$CLAYER
  8
0
  9
$CELTYPE
  6
ByLayer
  9
$CECOLOR
 62
   256
  9
$CELTSCALE
 40
25.4
  9
$DISPSILH
 70
     0
  9
$DIMSCALE
 40
1.0
  9
$DIMASZ
 40
0.18
  9
$DIMEXO
 40
0.0625
  9
$DIMDLI
 40
0.38
  9
$DIMRND
 40
0.0
  9
$DIMDLE
 40
0.0
  9
$DIMEXE
 40
0.18
  9
$DIMTP
 40
0.0
  9
$DIMTM
 40
0.0
  9
$DIMTXT
 40
0.18
  9
$DIMCEN
 40
0.09
  9
$DIMTSZ
 40
0.0
  9
$DIMTOL
 70
     0
  9
$DIMLIM
 70
     0
  9
$DIMTIH
 70
     1
  9
$DIMTOH
 70
     1
  9
$DIMSE1
 70
     0
  9
$DIMSE2
 70
     0
  9
$DIMTAD
 70
     0
  9
$DIMZIN
 70
     0
  9
$DIMBLK
  1

  9
$DIMASO
 70
     1
  9
$DIMSHO
 70
     1
  9
$DIMPOST
  1

  9
$DIMAPOST
  1

  9
$DIMALT
 70
     0
  9
$DIMALTD
 70
     2
  9
$DIMALTF
 40
25.4
  9
$DIMLFAC
 40
1.0
  9
$DIMTOFL
 70
     0
  9
$DIMTVP
 40
0.0
  9
$DIMTIX
 70
     0
  9
$DIMSOXD
 70
     0
  9
$DIMSAH
 70
     0
  9
$DIMBLK1
  1

  9
$DIMBLK2
  1

  9
$DIMSTYLE
  2
Standard
  9
$DIMCLRD
 70
     0
  9
$DIMCLRE
 70
     0
  9
$DIMCLRT
 70
     0
  9
$DIMTFAC
 40
1.0
  9
$DIMGAP
 40
0.09
  9
$DIMJUST
 70
     0
  9
$DIMSD1
 70
     0
  9
$DIMSD2
 70
     0
  9
$DIMTOLJ
 70
     1
  9
$DIMTZIN
 70
     0
  9
$DIMALTZ
 70
     0
  9
$DIMALTTZ
 70
     0
  9
$DIMUPT
 70
     0
  9
$DIMDEC
 70
     4
  9
$DIMTDEC
 70
     4
  9
$DIMALTU
 70
     2
  9
$DIMALTTD
 70
     2
  9
$DIMTXSTY
  7
Standard
  9
$DIMAUNIT
 70
     0
  9
$DIMADEC
 70
     0
  9
$DIMALTRND
 40
0.0
  9
$DIMAZIN
 70
     0
  9
$DIMDSEP
 70
    46
  9
$DIMATFIT
 70
     3
  9
$DIMFRAC
 70
     0
  9
$DIMLDRBLK
  1

  9
$DIMLUNIT
 70
     2
  9
$DIMLWD
 70
    -2
  9
$DIMLWE
 70
    -2
  9
$DIMTMOVE
 70
     0
  9
$LUNITS
 70
     2
  9
$LUPREC
 70
     4
  9
$SKETCHINC
 40
0.1
  9
$FILLETRAD
 40
0.5
  9
$AUNITS
 70
     0
  9
$AUPREC
 70
     0
  9
$MENU
  1
.
  9
$ELEVATION
 40
0.0
  9
$PELEVATION
 40
0.0
  9
$THICKNESS
 40
0.0
  9
$LIMCHECK
 70
     0
  9
$CHAMFERA
 40
0.5
  9
$CHAMFERB
 40
0.5
  9
$CHAMFERC
 40
1.0
  9
$CHAMFERD
 40
0.0
  9
$SKPOLY
 70
     0
  9
$TDCREATE
 40
2454111.447361366
  9
$TDUCREATE
 40
2454111.405694699
  9
$TDUPDATE
 40
2454111.447361378
  9
$TDUUPDATE
 40
2454111.405694711
  9
$TDINDWG
 40
0.0000000116
  9
$TDUSRTIMER
 40
0.0000000116
  9
$USRTIMER
 70
     1
  9
$ANGBASE
 50
0.0
  9
$ANGDIR
 70
     0
  9
$PDMODE
 70
     0
  9
$PDSIZE
 40
0.0
  9
$PLINEWID
 40
0.0
  9
$SPLFRAME
 70
     0
  9
$SPLINETYPE
 70
     6
  9
$SPLINESEGS
 70
     8
  9
$HANDSEED
  5
151
  9
$SURFTAB1
 70
     6
  9
$SURFTAB2
 70
     6
  9
$SURFTYPE
 70
     6
  9
$SURFU
 70
     6
  9
$SURFV
 70
     6
  9
$UCSBASE
  2

  9
$UCSNAME
  2

  9
$UCSORG
 10
0.0
 20
0.0
 30
0.0
  9
$UCSXDIR
 10
1.0
 20
0.0
 30
0.0
  9
$UCSYDIR
 10
0.0
 20
1.0
 30
0.0
  9
$UCSORTHOREF
  2

  9
$UCSORTHOVIEW
 70
     0
  9
$UCSORGTOP
 10
0.0
 20
0.0
 30
0.0
  9
$UCSORGBOTTOM
 10
0.0
 20
0.0
 30
0.0
  9
$UCSORGLEFT
 10
0.0
 20
0.0
 30
0.0
  9
$UCSORGRIGHT
 10
0.0
 20
0.0
 30
0.0
  9
$UCSORGFRONT
 10
0.0
 20
0.0
 30
0.0
  9
$UCSORGBACK
 10
0.0
 20
0.0
 30
0.0
  9
$PUCSBASE
  2

  9
$PUCSNAME
  2

  9
$PUCSORG
 10
0.0
 20
0.0
 30
0.0
  9
$PUCSXDIR
 10
1.0
 20
0.0
 30
0.0
  9
$PUCSYDIR
 10
0.0
 20
1.0
 30
0.0
  9
$PUCSORTHOREF
  2

  9
$PUCSORTHOVIEW
 70
     0
  9
$PUCSORGTOP
 10
0.0
 20
0.0
 30
0.0
  9
$PUCSORGBOTTOM
 10
0.0
 20
0.0
 30
0.0
  9
$PUCSORGLEFT
 10
0.0
 20
0.0
 30
0.0
  9
$PUCSORGRIGHT
 10
0.0
 20
0.0
 30
0.0
  9
$PUCSORGFRONT
 10
0.0
 20
0.0
 30
0.0
  9
$PUCSORGBACK
 10
0.0
 20
0.0
 30
0.0
  9
$USERI1
 70
     0
  9
$USERI2
 70
     0
  9
$USERI3
 70
     0
  9
$USERI4
 70
     0
  9
$USERI5
 70
     0
  9
$USERR1
 40
0.0
  9
$USERR2
 40
0.0
  9
$USERR3
 40
0.0
  9
$USERR4
 40
0.0
  9
$USERR5
 40
0.0
  9
$WORLDVIEW
 70
     1
  9
$SHADEDGE
 70
     3
  9
$SHADEDIF
 70
    70
  9
$TILEMODE
 70
     1
  9
$MAXACTVP
 70
    64
  9
$PINSBASE
 10
0.0
 20
0.0
 30
0.0
  9
$PLIMCHECK
 70
     0
  9
$PEXTMIN
 10
0.0
 20
0.0
 30
0.0
  9
$PEXTMAX
 10
210.0
 20
297.0
 30
0.0
  9
$PLIMMIN
 10
0.0
 20
0.0
  9
$PLIMMAX
 10
210.0
 20
297.0
  9
$UNITMODE
 70
     0
  9
$VISRETAIN
 70
     1
  9
$PLINEGEN
 70
     0
  9
$PSLTSCALE
 70
     1
  9
$TREEDEPTH
 70
  3020
  9
$CMLSTYLE
  2
Standard
  9
$CMLJUST
 70
     0
  9
$CMLSCALE
 40
1.0
  9
$PROXYGRAPHICS
 70
     1
  9
$MEASUREMENT
 70
     1
  9
$CELWEIGHT
370
    -1
  9
$ENDCAPS
280
     0
  9
$JOINSTYLE
280
     0
  9
$LWDISPLAY
290
     0
  9
$INSUNITS
 70
     1
  9
$HYPERLINKBASE
  1

  9
$STYLESHEET
  1

  9
$XEDIT
290
     1
  9
$CEPSNTYPE
380
     0
  9
$PSTYLEMODE
290
     1
  9
$FINGERPRINTGUID
  2
{C412CB89-1217-45A6-9A38-0F74670AE834}
  9
$VERSIONGUID
  2
{FAEB1C32-E019-11D5-929B-00C0DF256EC4}
  9
$EXTNAMES
290
     1
  9
$PSVPSCALE
 40
0.0
  9
$OLESTARTUP
290
     0
  0
ENDSEC
  0
SECTION
  2
CLASSES
  0
CLASS
  1
ACDBDICTIONARYWDFLT
  2
AcDbDictionaryWithDefault
  3
ObjectDBX Classes
 90
        0
280
     0
281
     0
  0
CLASS
  1
SPATIAL_FILTER
  2
AcDbSpatialFilter
  3
ObjectDBX Classes
 90
        0
280
     0
281
     0
  0
CLASS
  1
ACDBPLACEHOLDER
  2
AcDbPlaceHolder
  3
ObjectDBX Classes
 90
        0
280
     0
281
     0
  0
CLASS
  1
LAYOUT
  2
AcDbLayout
  3
ObjectDBX Classes
 90
        0
280
     0
281
     0
  0
ENDSEC
  0
SECTION
  2
TABLES
  0
TABLE
  2
VPORT
  5
8
330
0
100
AcDbSymbolTable
 70
     1
  0
VPORT
  5
29
330
8
100
AcDbSymbolTableRecord
100
AcDbViewportTableRecord
  2
*Active
 70
     0
 10
0.0
 20
0.0
 11
1.0
 21
1.0
 12
10.4299065421
 22
4.5
 13
0.0
 23
0.0
 14
0.5
 24
0.5
 15
0.5
 25
0.5
 16
0.0
 26
0.0
 36
1.0
 17
0.0
 27
0.0
 37
0.0
 40
9.0
 41
1.9729729729
 42
50.0
 43
0.0
 44
0.0
 50
0.0
 51
0.0
 71
     0
 72
   100
 73
     1
 74
     3
 75
     0
 76
     0
 77
     0
 78
     0
281
     0
 65
     1
110
0.0
120
0.0
130
0.0
111
1.0
121
0.0
131
0.0
112
0.0
122
1.0
132
0.0
 79
     0
146
0.0
  0
ENDTAB
  0
TABLE
  2
LTYPE
  5
5
330
0
100
AcDbSymbolTable
 70
     3
  0
LTYPE
  5
14
330
5
100
AcDbSymbolTableRecord
100
AcDbLinetypeTableRecord
  2
ByBlock
 70
     0
  3

 72
    65
 73
     0
 40
0.0
  0
LTYPE
  5
15
330
5
100
AcDbSymbolTableRecord
100
AcDbLinetypeTableRecord
  2
ByLayer
 70
     0
  3

 72
    65
 73
     0
 40
0.0
  0
LTYPE
  5
16
330
5
100
AcDbSymbolTableRecord
100
AcDbLinetypeTableRecord
  2
Continuous
 70
     0
  3
Solid line
 72
    65
 73
     0
 40
0.0
  0
LTYPE
  5
2F
330
5
100
AcDbSymbolTableRecord
100
AcDbLinetypeTableRecord
  2
CENTER2
 70
     0
  3
___ _ ___ _ ___ _ ___ _ ___ _ ___ _ ___ _ ___ _
 72
    65
 73
     4
 40
1.125
 49
0.75
 74
     4
 75
     0
340
0
 46
0.0
 50
0.0
 44
0.0
 45
0.0
 49
-0.125
 74
     4
 75
     0
340
0
 46
0.0
 50
0.0
 44
0.0
 45
0.0
 49
0.125
 74
     4
 75
     0
340
0
 46
0.0
 50
0.0
 44
0.0
 45
0.0
 49
-0.125
 74
     4
 75
     0
340
0
 46
0.0
 50
0.0
 44
0.0
 45
0.0
  0
LTYPE
  5
54
330
5
100
AcDbSymbolTableRecord
100
AcDbLinetypeTableRecord
  2
HIDDEN2
 70
     0
  3
_ _ _ _ _ _ _ _ _ _ _ _ _ _ _ _ _ _ _ _ _ _ _ _
 72
    65
 73
     2
 40
0.1875
 49
0.125
 74
     4
 75
     0
340
0
 46
0.0
 50
0.0
 44
0.0
 45
0.0
 49
-0.0625
 74
     4
 75
     0
340
0
 46
0.0
 50
0.0
 44
0.0
 45
0.0
  0
ENDTAB
  0
TABLE
  2
LAYER
  5
2
330
0
100
AcDbSymbolTable
 70
     6
  0
LAYER
  5
10
330
2
100
AcDbSymbolTableRecord
100
AcDbLayerTableRecord
  2
0
 70
     0
 62
     7
  6
Continuous
370
    -3
390
F
  0
LAYER
  5
2C
330
2
100
AcDbSymbolTableRecord
100
AcDbLayerTableRecord
  2
Default
 70
     0
 62
     7
  6
Continuous
370
    -3
390
F
  0
LAYER
  5
49
330
2
100
AcDbSymbolTableRecord
100
AcDbLayerTableRecord
  2
MEGA_012287
 70
     0
 62
     7
  6
Continuous
370
    -3
390
F
  0
LAYER
  5
52
330
2
100
AcDbSymbolTableRecord
100
AcDbLayerTableRecord
  2
MEGA_002238
 70
     0
 62
     7
  6
Continuous
370
    -3
390
F
  0
LAYER
  5
66
330
2
100
AcDbSymbolTableRecord
100
AcDbLayerTableRecord
  2
DV1_Standard
 70
     0
 62
     7
  6
Continuous
370
    -3
390
F
  0
LAYER
  5
8F
330
2
100
AcDbSymbolTableRecord
100
AcDbLayerTableRecord
  2
DV2_Standard
 70
     0
 62
     7
  6
Continuous
370
    -3
390
F
  0
ENDTAB
  0
TABLE
  2
STYLE
  5
3
330
0
100
AcDbSymbolTable
 70
     3
  0
STYLE
  5
11
330
3
100
AcDbSymbolTableRecord
100
AcDbTextStyleTableRecord
  2
Standard
 70
     0
 40
0.0
 41
1.0
 50
0.0
 71
     0
 42
0.2
  3
txt
  4

  0
STYLE
  5
2A
330
3
100
AcDbSymbolTableRecord
100
AcDbTextStyleTableRecord
  2
SEACAD_seiso_ttf
 70
     0
 40
0.2
 41
1.0
 50
0.0
 71
     0
 42
0.2
  3
seiso.ttf
  4

  0
STYLE
  5
D1
330
3
100
AcDbSymbolTableRecord
100
AcDbTextStyleTableRecord
  2
SEACAD_semeci1_ttf
 70
     0
 40
0.2
 41
1.0
 50
0.0
 71
     0
 42
0.2
  3
semeci1.ttf
  4

  0
ENDTAB
  0
TABLE
  2
VIEW
  5
6
330
0
100
AcDbSymbolTable
 70
     0
  0
ENDTAB
  0
TABLE
  2
UCS
  5
7
330
0
100
AcDbSymbolTable
 70
     0
  0
ENDTAB
  0
TABLE
  2
APPID
  5
9
330
0
100
AcDbSymbolTable
 70
     1
  0
APPID
  5
12
330
9
100
AcDbSymbolTableRecord
100
AcDbRegAppTableRecord
  2
ACAD
 70
     0
  0
ENDTAB
  0
TABLE
  2
DIMSTYLE
  5
A
330
0
100
AcDbSymbolTable
 70
     1
100
AcDbDimStyleTable
  0
DIMSTYLE
105
27
330
A
100
AcDbSymbolTableRecord
100
AcDbDimStyleTableRecord
  2
Standard
 70
     0
340
11
  0
ENDTAB
  0
TABLE
  2
BLOCK_RECORD
  5
1
330
0
100
AcDbSymbolTable
 70
    21
  0
BLOCK_RECORD
  5
1F
330
1
100
AcDbSymbolTableRecord
100
AcDbBlockTableRecord
  2
*Model_Space
340
22
  0
BLOCK_RECORD
  5
1B
330
1
100
AcDbSymbolTableRecord
100
AcDbBlockTableRecord
  2
*Paper_Space
340
1E
  0
BLOCK_RECORD
  5
2D
330
1
100
AcDbSymbolTableRecord
100
AcDbBlockTableRecord
  2
SEANNOT_GROUP
340
0
102
{BLKREFS
331
2E
102
}
  0
BLOCK_RECORD
  5
38
330
1
100
AcDbSymbolTableRecord
100
AcDbBlockTableRecord
  2
SEANNOT_GROUP1
340
0
102
{BLKREFS
331
39
102
}
  0
BLOCK_RECORD
  5
3D
330
1
100
AcDbSymbolTableRecord
100
AcDbBlockTableRecord
  2
SEANNOT_GROUP2
340
0
102
{BLKREFS
331
3E
102
}
  0
BLOCK_RECORD
  5
42
330
1
100
AcDbSymbolTableRecord
100
AcDbBlockTableRecord
  2
SEANNOT_GROUP3
340
0
102
{BLKREFS
331
43
102
}
  0
BLOCK_RECORD
  5
47
330
1
100
AcDbSymbolTableRecord
100
AcDbBlockTableRecord
  2
SE
340
0
102
{BLKREFS
331
48
102
}
  0
BLOCK_RECORD
  5
72
330
1
100
AcDbSymbolTableRecord
100
AcDbBlockTableRecord
  2
SE1
340
0
102
{BLKREFS
331
73
102
}
  0
BLOCK_RECORD
  5
A3
330
1
100
AcDbSymbolTableRecord
100
AcDbBlockTableRecord
  2
GDimGGroup
340
0
102
{BLKREFS
331
A4
102
}
  0
BLOCK_RECORD
  5
AF
330
1
100
AcDbSymbolTableRecord
100
AcDbBlockTableRecord
  2
GDimGGroup1
340
0
102
{BLKREFS
331
B0
102
}
  0
BLOCK_RECORD
  5
BB
330
1
100
AcDbSymbolTableRecord
100
AcDbBlockTableRecord
  2
GDimGGroup2
340
0
102
{BLKREFS
331
BC
102
}
  0
BLOCK_RECORD
  5
C7
330
1
100
AcDbSymbolTableRecord
100
AcDbBlockTableRecord
  2
GDimGGroup3
340
0
102
{BLKREFS
331
C8
102
}
  0
BLOCK_RECORD
  5
D5
330
1
100
AcDbSymbolTableRecord
100
AcDbBlockTableRecord
  2
GDimGGroup4
340
0
102
{BLKREFS
331
D6
102
}
  0
BLOCK_RECORD
  5
E2
330
1
100
AcDbSymbolTableRecord
100
AcDbBlockTableRecord
  2
GDimGGroup5
340
0
102
{BLKREFS
331
E3
102
}
  0
BLOCK_RECORD
  5
EF
330
1
100
AcDbSymbolTableRecord
100
AcDbBlockTableRecord
  2
GDimGGroup6
340
0
102
{BLKREFS
331
F0
102
}
  0
BLOCK_RECORD
  5
FC
330
1
100
AcDbSymbolTableRecord
100
AcDbBlockTableRecord
  2
GDimGGroup7
340
0
102
{BLKREFS
331
FD
102
}
  0
BLOCK_RECORD
  5
108
330
1
100
AcDbSymbolTableRecord
100
AcDbBlockTableRecord
  2
GDimGGroup8
340
0
102
{BLKREFS
331
109
102
}
  0
BLOCK_RECORD
  5
114
330
1
100
AcDbSymbolTableRecord
100
AcDbBlockTableRecord
  2
GDimGGroup9
340
0
102
{BLKREFS
331
115
102
}
  0
BLOCK_RECORD
  5
120
330
1
100
AcDbSymbolTableRecord
100
AcDbBlockTableRecord
  2
GDimGGroup10
340
0
102
{BLKREFS
331
121
102
}
  0
BLOCK_RECORD
  5
12C
330
1
100
AcDbSymbolTableRecord
100
AcDbBlockTableRecord
  2
GDimGGroup11
340
0
102
{BLKREFS
331
12D
102
}
  0
BLOCK_RECORD
  5
138
330
1
100
AcDbSymbolTableRecord
100
AcDbBlockTableRecord
  2
GDimGGroup12
340
0
102
{BLKREFS
331
139
102
}
  0
BLOCK_RECORD
  5
145
330
1
100
AcDbSymbolTableRecord
100
AcDbBlockTableRecord
  2
GDimGGroup13
340
0
102
{BLKREFS
331
146
102
}
  0
ENDTAB
  0
ENDSEC
  0
SECTION
  2
BLOCKS
  0
BLOCK
  5
20
330
1F
100
AcDbEntity
  8
0
100
AcDbBlockBegin
  2
*Model_Space
 70
     0
 71
     0
 10
0.0
 20
0.0
 30
0.0
  3
*Model_Space
  1

  0
ENDBLK
  5
21
330
1F
100
AcDbEntity
  8
0
100
AcDbBlockEnd
  0
BLOCK
  5
1C
330
1B
100
AcDbEntity
 67
     1
  8
0
100
AcDbBlockBegin
  2
*Paper_Space
 70
     0
 71
     0
 10
0.0
 20
0.0
 30
0.0
  3
*Paper_Space
  1

  0
ENDBLK
  5
1D
330
1B
100
AcDbEntity
 67
     1
  8
0
100
AcDbBlockEnd
  0
BLOCK
  5
36
330
2D
100
AcDbEntity
  8
0
100
AcDbBlockBegin
  2
SEANNOT_GROUP
 70
     0
 71
     0
 10
0.0
 20
0.0
 30
0.0
  3
SEANNOT_GROUP
  1

  0
LINE
  5
30
330
2D
100
AcDbEntity
  8
Default
  6
CENTER2
 62
     7
 48
25.4
100
AcDbLine
 10
165.2954304301
 20
177.1404626061
 30
0.0
 11
153.2954303258
 21
177.1404626061
 31
0.0
  0
LINE
  5
31
330
2D
100
AcDbEntity
  8
Default
  6
CENTER2
 62
     7
 48
25.4
100
AcDbLine
 10
159.2954303779
 20
183.1404626582
 30
0.0
 11
159.2954303779
 21
171.1404625539
 31
0.0
  0
LINE
  5
32
330
2D
100
AcDbEntity
  8
Default
  6
CENTER2
 62
     7
 48
25.4
100
AcDbLine
 10
166.7954303779
 20
177.1404626061
 30
0.0
 11
169.0454303779
 21
177.1404626061
 31
0.0
  0
LINE
  5
33
330
2D
100
AcDbEntity
  8
Default
  6
CENTER2
 62
     7
 48
25.4
100
AcDbLine
 10
159.2954303779
 20
184.6404626061
 30
0.0
 11
159.2954303779
 21
186.8904626061
 31
0.0
  0
LINE
  5
34
330
2D
100
AcDbEntity
  8
Default
  6
CENTER2
 62
     7
 48
25.4
100
AcDbLine
 10
151.7954303779
 20
177.1404626061
 30
0.0
 11
149.5454303779
 21
177.1404626061
 31
0.0
  0
LINE
  5
35
330
2D
100
AcDbEntity
  8
Default
  6
CENTER2
 62
     7
 48
25.4
100
AcDbLine
 10
159.2954303779
 20
169.6404626061
 30
0.0
 11
159.2954303779
 21
167.3904626061
 31
0.0
  0
ENDBLK
  5
37
330
2D
100
AcDbEntity
  8
0
100
AcDbBlockEnd
  0
BLOCK
  5
3B
330
38
100
AcDbEntity
  8
0
100
AcDbBlockBegin
  2
SEANNOT_GROUP1
 70
     0
 71
     0
 10
0.0
 20
0.0
 30
0.0
  3
SEANNOT_GROUP1
  1

  0
LINE
  5
3A
330
38
100
AcDbEntity
  8
Default
  6
CENTER2
 62
     7
 48
25.4
100
AcDbLine
 10
28.9499752193
 20
177.1404626061
 30
0.0
 11
101.7498445211
 21
177.1404626061
 31
0.0
  0
ENDBLK
  5
3C
330
38
100
AcDbEntity
  8
0
100
AcDbBlockEnd
  0
BLOCK
  5
40
330
3D
100
AcDbEntity
  8
0
100
AcDbBlockBegin
  2
SEANNOT_GROUP2
 70
     0
 71
     0
 10
0.0
 20
0.0
 30
0.0
  3
SEANNOT_GROUP2
  1

  0
LINE
  5
3F
330
3D
100
AcDbEntity
  8
Default
  6
CENTER2
 62
     7
 48
25.4
100
AcDbLine
 10
79.2008721139
 20
198.6404626061
 30
0.0
 11
60.7498445211
 21
198.6404626061
 31
0.0
  0
ENDBLK
  5
41
330
3D
100
AcDbEntity
  8
0
100
AcDbBlockEnd
  0
BLOCK
  5
45
330
42
100
AcDbEntity
  8
0
100
AcDbBlockBegin
  2
SEANNOT_GROUP3
 70
     0
 71
     0
 10
0.0
 20
0.0
 30
0.0
  3
SEANNOT_GROUP3
  1

  0
LINE
  5
44
330
42
100
AcDbEntity
  8
Default
  6
CENTER2
 62
     7
 48
25.4
100
AcDbLine
 10
78.9120738559
 20
155.6404626061
 30
0.0
 11
60.7498445211
 21
155.6404626061
 31
0.0
  0
ENDBLK
  5
46
330
42
100
AcDbEntity
  8
0
100
AcDbBlockEnd
  0
BLOCK
  5
70
330
47
100
AcDbEntity
  8
0
100
AcDbBlockBegin
  2
SE
 70
     0
 71
     0
 10
0.0
 20
0.0
 30
0.0
  3
SE
  1

  0
LINE
  5
4A
330
47
100
AcDbEntity
  8
MEGA_012287
  6
Continuous
 62
     7
 48
25.4
100
AcDbLine
 10
64.9998445211
 20
209.8056149109
 30
0.0
 11
64.9998445211
 21
144.4753103012
 31
0.0
  0
LINE
  5
4B
330
47
100
AcDbEntity
  8
MEGA_012287
  6
Continuous
 62
     7
 48
25.4
100
AcDbLine
 10
64.9998445211
 20
143.4754626061
 30
0.0
 11
64.9998445211
 21
144.4753103012
 31
0.0
  0
LINE
  5
4C
330
47
100
AcDbEntity
  8
MEGA_012287
  6
Continuous
 62
     7
 48
25.4
100
AcDbLine
 10
64.9998445211
 20
209.8056149109
 30
0.0
 11
64.9998445211
 21
210.8054626061
 31
0.0
  0
LINE
  5
4D
330
47
100
AcDbEntity
  8
MEGA_012287
  6
Continuous
 62
     7
 48
25.4
100
AcDbLine
 10
64.9998445211
 20
210.8054626061
 30
0.0
 11
77.0172969276
 21
210.595697194
 31
0.0
  0
LINE
  5
4E
330
47
100
AcDbEntity
  8
MEGA_012287
  6
Continuous
 62
     7
 48
25.4
100
AcDbLine
 10
77.0172969276
 20
143.6852280181
 30
0.0
 11
64.9998445211
 21
143.4754626061
 31
0.0
  0
LINE
  5
4F
330
47
100
AcDbEntity
  8
MEGA_012287
  6
Continuous
 62
     7
 48
25.4
100
AcDbLine
 10
77.9998445211
 20
209.5958494989
 30
0.0
 11
77.9998445211
 21
144.6850757133
 31
0.0
  0
ARC
  5
50
330
47
100
AcDbEntity
  8
MEGA_012287
  6
Continuous
 62
     7
 48
25.4
100
AcDbCircle
 10
76.9998445211
 20
144.6850757133
 30
0.0
 40
0.9999999999999977
100
AcDbArc
 50
271.0
 51
360.0
  0
ARC
  5
51
330
47
100
AcDbEntity
  8
MEGA_012287
  6
Continuous
 62
     7
 48
25.4
100
AcDbCircle
 10
76.9998445211
 20
209.5958494989
 30
0.0
 40
1.000000000000001
100
AcDbArc
 50
0.0
 51
89.0
  0
LINE
  5
53
330
47
100
AcDbEntity
  8
MEGA_002238
  6
Continuous
 62
     7
 48
25.4
100
AcDbLine
 10
58.9998445211
 20
170.8904626061
 30
0.0
 11
58.9998445211
 21
183.3904626061
 31
0.0
  0
LINE
  5
55
330
47
100
AcDbEntity
  8
MEGA_002238
  6
HIDDEN2
 62
     7
 48
25.4
100
AcDbLine
 10
65.9998445211
 20
168.8904626061
 30
0.0
 11
65.9998445211
 21
185.3904626061
 31
0.0
  0
LINE
  5
56
330
47
100
AcDbEntity
  8
MEGA_002238
  6
Continuous
 62
     7
 48
25.4
100
AcDbLine
 10
62.4998445211
 20
193.6404626061
 30
0.0
 11
62.4998445211
 21
203.6404626061
 31
0.0
  0
LINE
  5
57
330
47
100
AcDbEntity
  8
MEGA_002238
  6
Continuous
 62
     7
 48
25.4
100
AcDbLine
 10
62.4998445211
 20
160.6404626061
 30
0.0
 11
62.4998445211
 21
150.6404626061
 31
0.0
  0
LINE
  5
58
330
47
100
AcDbEntity
  8
MEGA_002238
  6
Continuous
 62
     7
 48
25.4
100
AcDbLine
 10
29.9998445211
 20
173.6404626061
 30
0.0
 11
58.9998445211
 21
173.6404626061
 31
0.0
  0
LINE
  5
59
330
47
100
AcDbEntity
  8
MEGA_002238
  6
Continuous
 62
     7
 48
25.4
100
AcDbLine
 10
29.9998445211
 20
180.6404626061
 30
0.0
 11
58.9998445211
 21
180.6404626061
 31
0.0
  0
LINE
  5
5A
330
47
100
AcDbEntity
  8
MEGA_002238
  6
Continuous
 62
     7
 48
25.4
100
AcDbLine
 10
29.9998445211
 20
173.6404626061
 30
0.0
 11
29.9998445211
 21
180.6404626061
 31
0.0
  0
LINE
  5
5B
330
47
100
AcDbEntity
  8
MEGA_002238
  6
Continuous
 62
     7
 48
25.4
100
AcDbLine
 10
99.9998445211
 20
173.1404626061
 30
0.0
 11
77.9998445211
 21
173.1404626061
 31
0.0
  0
LINE
  5
5C
330
47
100
AcDbEntity
  8
MEGA_002238
  6
Continuous
 62
     7
 48
25.4
100
AcDbLine
 10
99.9998445211
 20
181.1404626061
 30
0.0
 11
77.9998445211
 21
181.1404626061
 31
0.0
  0
LINE
  5
5D
330
47
100
AcDbEntity
  8
MEGA_002238
  6
Continuous
 62
     7
 48
25.4
100
AcDbLine
 10
99.9998445211
 20
181.1404626061
 30
0.0
 11
99.9998445211
 21
173.1404626061
 31
0.0
  0
LINE
  5
5E
330
47
100
AcDbEntity
  8
MEGA_002238
  6
Continuous
 62
     7
 48
25.4
100
AcDbLine
 10
64.9998445211
 20
183.3904626061
 30
0.0
 11
58.9998445211
 21
183.3904626061
 31
0.0
  0
LINE
  5
5F
330
47
100
AcDbEntity
  8
MEGA_002238
  6
Continuous
 62
     7
 48
25.4
100
AcDbLine
 10
58.9998445211
 20
170.8904626061
 30
0.0
 11
64.9998445211
 21
170.8904626061
 31
0.0
  0
LINE
  5
60
330
47
100
AcDbEntity
  8
MEGA_002238
  6
HIDDEN2
 62
     7
 48
25.4
100
AcDbLine
 10
75.9998445211
 20
185.3904626061
 30
0.0
 11
65.9998445211
 21
185.3904626061
 31
0.0
  0
LINE
  5
61
330
47
100
AcDbEntity
  8
MEGA_002238
  6
HIDDEN2
 62
     7
 48
25.4
100
AcDbLine
 10
65.9998445211
 20
168.8904626061
 30
0.0
 11
75.9998445211
 21
168.8904626061
 31
0.0
  0
LINE
  5
62
330
47
100
AcDbEntity
  8
MEGA_002238
  6
Continuous
 62
     7
 48
25.4
100
AcDbLine
 10
64.9998445211
 20
203.6404626061
 30
0.0
 11
62.4998445211
 21
203.6404626061
 31
0.0
  0
LINE
  5
63
330
47
100
AcDbEntity
  8
MEGA_002238
  6
Continuous
 62
     7
 48
25.4
100
AcDbLine
 10
62.4998445211
 20
193.6404626061
 30
0.0
 11
64.9998445211
 21
193.6404626061
 31
0.0
  0
LINE
  5
64
330
47
100
AcDbEntity
  8
MEGA_002238
  6
Continuous
 62
     7
 48
25.4
100
AcDbLine
 10
64.9998445211
 20
160.6404626061
 30
0.0
 11
62.4998445211
 21
160.6404626061
 31
0.0
  0
LINE
  5
65
330
47
100
AcDbEntity
  8
MEGA_002238
  6
Continuous
 62
     7
 48
25.4
100
AcDbLine
 10
62.4998445211
 20
150.6404626061
 30
0.0
 11
64.9998445211
 21
150.6404626061
 31
0.0
  0
LINE
  5
67
330
47
100
AcDbEntity
  8
DV1_Standard
  6
Continuous
 62
     7
 48
25.4
100
AcDbLine
 10
29.9998445211
 20
173.6404626061
 30
0.0
 11
58.9998445211
 21
180.6404626061
 31
0.0
  0
LINE
  5
68
330
47
100
AcDbEntity
  8
DV1_Standard
  6
Continuous
 62
     7
 48
25.4
100
AcDbLine
 10
29.9998445211
 20
180.6404626061
 30
0.0
 11
58.9998445211
 21
173.6404626061
 31
0.0
  0
LINE
  5
69
330
47
100
AcDbEntity
  8
DV1_Standard
  6
Continuous
 62
     7
 48
25.4
100
AcDbLine
 10
99.9998445211
 20
173.1404626061
 30
0.0
 11
77.9998445211
 21
181.1404626061
 31
0.0
  0
LINE
  5
6A
330
47
100
AcDbEntity
  8
DV1_Standard
  6
Continuous
 62
     7
 48
25.4
100
AcDbLine
 10
99.9998445211
 20
181.1404626061
 30
0.0
 11
77.9998445211
 21
173.1404626061
 31
0.0
  0
LINE
  5
6B
330
47
100
AcDbEntity
  8
DV1_Standard
  6
HIDDEN2
 62
     7
 48
25.4
100
AcDbLine
 10
75.9998445211
 20
185.3904626061
 30
0.0
 11
77.9998445211
 21
185.3904626061
 31
0.0
  0
LINE
  5
6C
330
47
100
AcDbEntity
  8
DV1_Standard
  6
HIDDEN2
 62
     7
 48
25.4
100
AcDbLine
 10
75.5677716152
 20
168.8904626061
 30
0.0
 11
77.9998445211
 21
168.8904626061
 31
0.0
  0
ENDBLK
  5
71
330
47
100
AcDbEntity
  8
0
100
AcDbBlockEnd
  0
BLOCK
  5
A1
330
72
100
AcDbEntity
  8
0
100
AcDbBlockBegin
  2
SE1
 70
     0
 71
     0
 10
0.0
 20
0.0
 30
0.0
  3
SE1
  1

  0
CIRCLE
  5
74
330
72
100
AcDbEntity
  8
MEGA_012287
  6
HIDDEN2
 62
     7
 48
25.4
100
AcDbCircle
 10
159.2954303779
 20
177.1404626061
 30
0.0
 40
8.0
  0
LINE
  5
75
330
72
100
AcDbEntity
  8
MEGA_012287
  6
Continuous
 62
     7
 48
25.4
100
AcDbLine
 10
175.9604303779
 20
209.8056149109
 30
0.0
 11
175.9604303779
 21
144.4753103012
 31
0.0
  0
LINE
  5
76
330
72
100
AcDbEntity
  8
MEGA_012287
  6
Continuous
 62
     7
 48
25.4
100
AcDbLine
 10
174.9605826828
 20
143.4754626061
 30
0.0
 11
143.6302780731
 21
143.4754626061
 31
0.0
  0
LINE
  5
77
330
72
100
AcDbEntity
  8
MEGA_012287
  6
Continuous
 62
     7
 48
25.4
100
AcDbLine
 10
143.6302780731
 20
210.8054626061
 30
0.0
 11
174.9605826828
 21
210.8054626061
 31
0.0
  0
LINE
  5
78
330
72
100
AcDbEntity
  8
MEGA_012287
  6
Continuous
 62
     7
 48
25.4
100
AcDbLine
 10
142.6304303779
 20
144.4753103012
 30
0.0
 11
142.6304303779
 21
209.8056149109
 31
0.0
  0
ELLIPSE
  5
79
330
72
100
AcDbEntity
  8
MEGA_012287
  6
Continuous
 62
     7
 48
25.4
100
AcDbEllipse
 10
143.630582706
 20
144.4756149341
 30
0.0
 11
0.7073221891695811
 21
0.7073221891695811
 31
0.0
210
0.0
220
0.0
230
1.0
 40
0.9996954599
 41
2.356346783439917
 42
3.926838523739669
  0
ELLIPSE
  5
7A
330
72
100
AcDbEntity
  8
MEGA_012287
  6
Continuous
 62
     7
 48
25.4
100
AcDbEllipse
 10
143.630582706
 20
209.805310278
 30
0.0
 11
0.7073221891695811
 21
-0.7073221891695811
 31
0.0
210
0.0
220
0.0
230
1.0
 40
0.9996954599
 41
2.356346783440003
 42
3.926838523739584
  0
ELLIPSE
  5
7B
330
72
100
AcDbEntity
  8
MEGA_012287
  6
Continuous
 62
     7
 48
25.4
100
AcDbEllipse
 10
174.9602780499
 20
144.4756149341
 30
0.0
 11
-0.7073221891695811
 21
0.7073221891695811
 31
0.0
210
0.0
220
0.0
230
1.0
 40
0.9996954599
 41
2.356346783439917
 42
3.926838523739669
  0
ELLIPSE
  5
7C
330
72
100
AcDbEntity
  8
MEGA_012287
  6
Continuous
 62
     7
 48
25.4
100
AcDbEllipse
 10
174.9602780499
 20
209.805310278
 30
0.0
 11
-0.7073221891695811
 21
-0.7073221891695811
 31
0.0
210
0.0
220
0.0
230
1.0
 40
0.9996954599
 41
2.356346783439946
 42
3.926838523739641
  0
LINE
  5
7D
330
72
100
AcDbEntity
  8
MEGA_002238
  6
Continuous
 62
     7
 48
25.4
100
AcDbLine
 10
144.7954303779
 20
194.1404626061
 30
0.0
 11
144.7954303779
 21
160.1404626061
 31
0.0
  0
ARC
  5
7E
330
72
100
AcDbEntity
  8
MEGA_002238
  6
Continuous
 62
     7
 48
25.4
100
AcDbCircle
 10
159.2954303779
 20
194.1404626061
 30
0.0
 40
14.5
100
AcDbArc
 50
0.0
 51
180.0
  0
LINE
  5
7F
330
72
100
AcDbEntity
  8
MEGA_002238
  6
Continuous
 62
     7
 48
25.4
100
AcDbLine
 10
173.7954303779
 20
160.1404626061
 30
0.0
 11
173.7954303779
 21
194.1404626061
 31
0.0
  0
ARC
  5
80
330
72
100
AcDbEntity
  8
MEGA_002238
  6
Continuous
 62
     7
 48
25.4
100
AcDbCircle
 10
159.2954303779
 20
160.1404626061
 30
0.0
 40
14.5
100
AcDbArc
 50
180.0
 51
360.0
  0
CIRCLE
  5
81
330
72
100
AcDbEntity
  8
MEGA_002238
  6
Continuous
 62
     7
 48
25.4
100
AcDbCircle
 10
159.2954303779
 20
177.1404626061
 30
0.0
 40
6.25
  0
CIRCLE
  5
82
330
72
100
AcDbEntity
  8
MEGA_002238
  6
HIDDEN2
 62
     7
 48
25.4
100
AcDbCircle
 10
159.2954303779
 20
177.1404626061
 30
0.0
 40
8.25
  0
CIRCLE
  5
83
330
72
100
AcDbEntity
  8
MEGA_002238
  6
Continuous
 62
     7
 48
25.4
100
AcDbCircle
 10
159.2954303779
 20
198.6404626061
 30
0.0
 40
5.0
  0
CIRCLE
  5
84
330
72
100
AcDbEntity
  8
MEGA_002238
  6
Continuous
 62
     7
 48
25.4
100
AcDbCircle
 10
159.2954303779
 20
155.6404626061
 30
0.0
 40
5.0
  0
LINE
  5
85
330
72
100
AcDbEntity
  8
MEGA_002238
  6
Continuous
 62
     7
 48
25.4
100
AcDbLine
 10
155.7954303779
 20
173.6404626061
 30
0.0
 11
162.7954303779
 21
173.6404626061
 31
0.0
  0
LINE
  5
86
330
72
100
AcDbEntity
  8
MEGA_002238
  6
Continuous
 62
     7
 48
25.4
100
AcDbLine
 10
162.7954303779
 20
173.6404626061
 30
0.0
 11
162.7954303779
 21
180.6404626061
 31
0.0
  0
LINE
  5
87
330
72
100
AcDbEntity
  8
MEGA_002238
  6
Continuous
 62
     7
 48
25.4
100
AcDbLine
 10
162.7954303779
 20
180.6404626061
 30
0.0
 11
155.7954303779
 21
180.6404626061
 31
0.0
  0
LINE
  5
88
330
72
100
AcDbEntity
  8
MEGA_002238
  6
Continuous
 62
     7
 48
25.4
100
AcDbLine
 10
155.7954303779
 20
180.6404626061
 30
0.0
 11
155.7954303779
 21
173.6404626061
 31
0.0
  0
LINE
  5
89
330
72
100
AcDbEntity
  8
MEGA_002238
  6
HIDDEN2
 62
     7
 48
25.4
100
AcDbLine
 10
163.2954303779
 20
173.1404626061
 30
0.0
 11
155.2954303779
 21
173.1404626061
 31
0.0
  0
LINE
  5
8A
330
72
100
AcDbEntity
  8
MEGA_002238
  6
HIDDEN2
 62
     7
 48
25.4
100
AcDbLine
 10
155.2954303779
 20
173.1404626061
 30
0.0
 11
155.2954303779
 21
181.1404626061
 31
0.0
  0
LINE
  5
8B
330
72
100
AcDbEntity
  8
MEGA_002238
  6
HIDDEN2
 62
     7
 48
25.4
100
AcDbLine
 10
155.2954303779
 20
181.1404626061
 30
0.0
 11
163.2954303779
 21
181.1404626061
 31
0.0
  0
LINE
  5
8C
330
72
100
AcDbEntity
  8
MEGA_002238
  6
HIDDEN2
 62
     7
 48
25.4
100
AcDbLine
 10
163.2954303779
 20
181.1404626061
 30
0.0
 11
163.2954303779
 21
173.1404626061
 31
0.0
  0
CIRCLE
  5
8D
330
72
100
AcDbEntity
  8
MEGA_002238
  6
Continuous
 62
     7
 48
25.4
100
AcDbCircle
 10
159.2954303779
 20
155.6404626061
 30
0.0
 40
2.9
  0
CIRCLE
  5
8E
330
72
100
AcDbEntity
  8
MEGA_002238
  6
Continuous
 62
     7
 48
25.4
100
AcDbCircle
 10
159.2954303779
 20
198.6404626061
 30
0.0
 40
2.9
  0
LINE
  5
90
330
72
100
AcDbEntity
  8
DV2_Standard
  6
CENTER2
 62
     7
 48
25.4
100
AcDbLine
 10
176.7105826828
 20
177.1404626061
 30
0.0
 11
141.8802780731
 21
177.1404626061
 31
0.0
  0
LINE
  5
91
330
72
100
AcDbEntity
  8
DV2_Standard
  6
CENTER2
 62
     7
 48
25.4
100
AcDbLine
 10
159.2954303779
 20
211.5556149109
 30
0.0
 11
159.2954303779
 21
142.7253103012
 31
0.0
  0
LINE
  5
92
330
72
100
AcDbEntity
  8
DV2_Standard
  6
CENTER2
 62
     7
 48
25.4
100
AcDbLine
 10
165.2954304301
 20
198.6404626061
 30
0.0
 11
153.2954303258
 21
198.6404626061
 31
0.0
  0
LINE
  5
93
330
72
100
AcDbEntity
  8
DV2_Standard
  6
CENTER2
 62
     7
 48
25.4
100
AcDbLine
 10
159.2954303779
 20
204.6404626582
 30
0.0
 11
159.2954303779
 21
192.6404625539
 31
0.0
  0
LINE
  5
94
330
72
100
AcDbEntity
  8
DV2_Standard
  6
CENTER2
 62
     7
 48
25.4
100
AcDbLine
 10
166.7954303779
 20
198.6404626061
 30
0.0
 11
166.0454303779
 21
198.6404626061
 31
0.0
  0
LINE
  5
95
330
72
100
AcDbEntity
  8
DV2_Standard
  6
CENTER2
 62
     7
 48
25.4
100
AcDbLine
 10
159.2954303779
 20
206.1404626061
 30
0.0
 11
159.2954303779
 21
205.3904626061
 31
0.0
  0
LINE
  5
96
330
72
100
AcDbEntity
  8
DV2_Standard
  6
CENTER2
 62
     7
 48
25.4
100
AcDbLine
 10
151.7954303779
 20
198.6404626061
 30
0.0
 11
152.5454303779
 21
198.6404626061
 31
0.0
  0
LINE
  5
97
330
72
100
AcDbEntity
  8
DV2_Standard
  6
CENTER2
 62
     7
 48
25.4
100
AcDbLine
 10
159.2954303779
 20
191.1404626061
 30
0.0
 11
159.2954303779
 21
191.8904626061
 31
0.0
  0
LINE
  5
98
330
72
100
AcDbEntity
  8
DV2_Standard
  6
CENTER2
 62
     7
 48
25.4
100
AcDbLine
 10
165.2954304301
 20
155.6404626061
 30
0.0
 11
153.2954303258
 21
155.6404626061
 31
0.0
  0
LINE
  5
99
330
72
100
AcDbEntity
  8
DV2_Standard
  6
CENTER2
 62
     7
 48
25.4
100
AcDbLine
 10
159.2954303779
 20
161.6404626582
 30
0.0
 11
159.2954303779
 21
149.6404625539
 31
0.0
  0
LINE
  5
9A
330
72
100
AcDbEntity
  8
DV2_Standard
  6
CENTER2
 62
     7
 48
25.4
100
AcDbLine
 10
166.7954303779
 20
155.6404626061
 30
0.0
 11
166.0454303779
 21
155.6404626061
 31
0.0
  0
LINE
  5
9B
330
72
100
AcDbEntity
  8
DV2_Standard
  6
CENTER2
 62
     7
 48
25.4
100
AcDbLine
 10
159.2954303779
 20
163.1404626061
 30
0.0
 11
159.2954303779
 21
162.3904626061
 31
0.0
  0
LINE
  5
9C
330
72
100
AcDbEntity
  8
DV2_Standard
  6
CENTER2
 62
     7
 48
25.4
100
AcDbLine
 10
151.7954303779
 20
155.6404626061
 30
0.0
 11
152.5454303779
 21
155.6404626061
 31
0.0
  0
LINE
  5
9D
330
72
100
AcDbEntity
  8
DV2_Standard
  6
CENTER2
 62
     7
 48
25.4
100
AcDbLine
 10
159.2954303779
 20
148.1404626061
 30
0.0
 11
159.2954303779
 21
148.8904626061
 31
0.0
  0
ENDBLK
  5
A2
330
72
100
AcDbEntity
  8
0
100
AcDbBlockEnd
  0
BLOCK
  5
AD
330
A3
100
AcDbEntity
  8
0
100
AcDbBlockBegin
  2
GDimGGroup
 70
     0
 71
     0
 10
0.0
 20
0.0
 30
0.0
  3
GDimGGroup
  1

  0
HATCH
  5
A5
330
A3
100
AcDbEntity
  8
Default
  6
Continuous
 62
   176
 48
25.4
100
AcDbHatch
 10
0.0
 20
0.0
 30
0.0
210
0.0
220
0.0
230
1.0
  2
SOLID
 70
     1
 71
     0
 91
        1
 92
        1
 93
        3
 72
     1
 10
187.9419245622465
 20
195.6404625799971
 11
187.4419245579003
 21
198.6404626060741
 72
     1
 10
187.4419245579003
 20
198.6404626060741
 11
186.9419245535542
 21
195.6404625799971
 72
     1
 10
186.9419245535542
 20
195.6404625799971
 11
187.9419245622465
 21
195.6404625799971
 97
        0
 75
     0
 76
     1
 98
        0
  0
LWPOLYLINE
  5
A6
330
A3
100
AcDbEntity
  8
Default
  6
Continuous
 62
   176
 48
25.4
370
     9
100
AcDbPolyline
 90
        4
 70
     1
 43
0.00013
 10
187.9419245622
 20
195.64046258
 10
187.4419245579
 20
198.6404626061
 10
186.9419245536
 20
195.64046258
 10
187.9419245622
 20
195.64046258
  0
HATCH
  5
A7
330
A3
100
AcDbEntity
  8
Default
  6
Continuous
 62
   176
 48
25.4
100
AcDbHatch
 10
0.0
 20
0.0
 30
0.0
210
0.0
220
0.0
230
1.0
  2
SOLID
 70
     1
 71
     0
 91
        1
 92
        1
 93
        3
 72
     1
 10
187.9419245622465
 20
158.6404611718373
 11
186.9419245535542
 21
158.6404611718373
 72
     1
 10
186.9419245535542
 20
158.6404611718373
 11
187.4419245579003
 21
155.6404611457603
 72
     1
 10
187.4419245579003
 20
155.6404611457603
 11
187.9419245622465
 21
158.6404611718373
 97
        0
 75
     0
 76
     1
 98
        0
  0
LWPOLYLINE
  5
A8
330
A3
100
AcDbEntity
  8
Default
  6
Continuous
 62
   176
 48
25.4
370
     9
100
AcDbPolyline
 90
        4
 70
     1
 43
0.00013
 10
187.9419245622
 20
158.6404611718
 10
187.4419245579
 20
155.6404611458
 10
186.9419245536
 20
158.6404611718
 10
187.9419245622
 20
158.6404611718
  0
LINE
  5
A9
330
A3
100
AcDbEntity
  8
Default
  6
Continuous
 62
     7
 48
25.4
100
AcDbLine
 10
159.2954303779
 20
198.6404626061
 30
0.0
 11
188.9419245709
 21
198.6404626061
 31
0.0
  0
LINE
  5
AA
330
A3
100
AcDbEntity
  8
Default
  6
Continuous
 62
     7
 48
25.4
100
AcDbLine
 10
159.2954303779
 20
155.6404626061
 30
0.0
 11
188.9419245709
 21
155.6404626061
 31
0.0
  0
LINE
  5
AB
330
A3
100
AcDbEntity
  8
Default
  6
Continuous
 62
     7
 48
25.4
100
AcDbLine
 10
187.4419245579
 20
198.6404626061
 30
0.0
 11
187.4419245579
 21
155.6404611458
 31
0.0
  0
TEXT
  5
AC
330
A3
100
AcDbEntity
  8
Default
  6
Continuous
 62
     7
 48
25.4
100
AcDbText
 10
186.6919245579
 20
175.4700073305
 30
0.0
 40
3.0
  1
43
 50
90.0
  7
SEACAD_seiso_ttf
 11
183.6919245579
 21
175.4700073305
 31
0.0
100
AcDbText
 73
     3
  0
ENDBLK
  5
AE
330
A3
100
AcDbEntity
  8
0
100
AcDbBlockEnd
  0
BLOCK
  5
B9
330
AF
100
AcDbEntity
  8
0
100
AcDbBlockBegin
  2
GDimGGroup1
 70
     0
 71
     0
 10
0.0
 20
0.0
 30
0.0
  3
GDimGGroup1
  1

  0
HATCH
  5
B1
330
AF
100
AcDbEntity
  8
Default
  6
Continuous
 62
   176
 48
25.4
100
AcDbHatch
 10
0.0
 20
0.0
 30
0.0
210
0.0
220
0.0
230
1.0
  2
SOLID
 70
     1
 71
     0
 91
        1
 92
        1
 93
        3
 72
     1
 10
145.6304304040133
 20
121.102849290839
 11
145.6304304040133
 21
122.1028492995313
 72
     1
 10
145.6304304040133
 20
122.1028492995313
 11
142.6304303779363
 21
121.6028492951851
 72
     1
 10
142.6304303779363
 20
121.6028492951851
 11
145.6304304040133
 21
121.102849290839
 97
        0
 75
     0
 76
     1
 98
        0
  0
LWPOLYLINE
  5
B2
330
AF
100
AcDbEntity
  8
Default
  6
Continuous
 62
   176
 48
25.4
370
     9
100
AcDbPolyline
 90
        4
 70
     1
 43
0.00013
 10
145.630430404
 20
121.1028492908
 10
142.6304303779
 20
121.6028492952
 10
145.630430404
 20
122.1028492995
 10
145.630430404
 20
121.1028492908
  0
HATCH
  5
B3
330
AF
100
AcDbEntity
  8
Default
  6
Continuous
 62
   176
 48
25.4
100
AcDbHatch
 10
0.0
 20
0.0
 30
0.0
210
0.0
220
0.0
230
1.0
  2
SOLID
 70
     1
 71
     0
 91
        1
 92
        1
 93
        3
 72
     1
 10
172.9604312888443
 20
121.102849290839
 11
175.9604313149213
 21
121.6028492951851
 72
     1
 10
175.9604313149213
 20
121.6028492951851
 11
172.9604312888443
 21
122.1028492995313
 72
     1
 10
172.9604312888443
 20
122.1028492995313
 11
172.9604312888443
 21
121.102849290839
 97
        0
 75
     0
 76
     1
 98
        0
  0
LWPOLYLINE
  5
B4
330
AF
100
AcDbEntity
  8
Default
  6
Continuous
 62
   176
 48
25.4
370
     9
100
AcDbPolyline
 90
        4
 70
     1
 43
0.00013
 10
172.9604312888
 20
121.1028492908
 10
175.9604313149
 20
121.6028492952
 10
172.9604312888
 20
122.1028492995
 10
172.9604312888
 20
121.1028492908
  0
LINE
  5
B5
330
AF
100
AcDbEntity
  8
Default
  6
Continuous
 62
     7
 48
25.4
100
AcDbLine
 10
142.6304303779
 20
144.4753103012
 30
0.0
 11
142.6304303779
 21
120.1028492821
 31
0.0
  0
LINE
  5
B6
330
AF
100
AcDbEntity
  8
Default
  6
Continuous
 62
     7
 48
25.4
100
AcDbLine
 10
175.9604303779
 20
144.4753103012
 30
0.0
 11
175.9604303779
 21
120.1028492821
 31
0.0
  0
LINE
  5
B7
330
AF
100
AcDbEntity
  8
Default
  6
Continuous
 62
     7
 48
25.4
100
AcDbLine
 10
142.6304303779
 20
121.6028492952
 30
0.0
 11
175.9604313149
 21
121.6028492952
 31
0.0
  0
TEXT
  5
B8
330
AF
100
AcDbEntity
  8
Default
  6
Continuous
 62
     7
 48
25.4
100
AcDbText
 10
156.6704308464
 20
122.3528492952
 30
0.0
 40
3.0
  1
33,3
  7
SEACAD_seiso_ttf
 11
156.6704308464
 21
125.3528492952
 31
0.0
100
AcDbText
 73
     3
  0
ENDBLK
  5
BA
330
AF
100
AcDbEntity
  8
0
100
AcDbBlockEnd
  0
BLOCK
  5
C5
330
BB
100
AcDbEntity
  8
0
100
AcDbBlockBegin
  2
GDimGGroup2
 70
     0
 71
     0
 10
0.0
 20
0.0
 30
0.0
  3
GDimGGroup2
  1

  0
HATCH
  5
BD
330
BB
100
AcDbEntity
  8
Default
  6
Continuous
 62
   176
 48
25.4
100
AcDbHatch
 10
0.0
 20
0.0
 30
0.0
210
0.0
220
0.0
230
1.0
  2
SOLID
 70
     1
 71
     0
 91
        1
 92
        1
 93
        3
 72
     1
 10
153.3954303518593
 20
129.7744189297623
 11
156.3954303779363
 21
130.2744189341085
 72
     1
 10
156.3954303779363
 20
130.2744189341085
 11
153.3954303518593
 21
130.7744189384547
 72
     1
 10
153.3954303518593
 20
130.7744189384547
 11
153.3954303518593
 21
129.7744189297623
 97
        0
 75
     0
 76
     1
 98
        0
  0
LWPOLYLINE
  5
BE
330
BB
100
AcDbEntity
  8
Default
  6
Continuous
 62
   176
 48
25.4
370
     9
100
AcDbPolyline
 90
        4
 70
     1
 43
0.00013
 10
153.3954303519
 20
129.7744189298
 10
156.3954303779
 20
130.2744189341
 10
153.3954303519
 20
130.7744189385
 10
153.3954303519
 20
129.7744189298
  0
HATCH
  5
BF
330
BB
100
AcDbEntity
  8
Default
  6
Continuous
 62
   176
 48
25.4
100
AcDbHatch
 10
0.0
 20
0.0
 30
0.0
210
0.0
220
0.0
230
1.0
  2
SOLID
 70
     1
 71
     0
 91
        1
 92
        1
 93
        3
 72
     1
 10
165.1954304040133
 20
129.7744189297623
 11
165.1954304040133
 21
130.7744189384547
 72
     1
 10
165.1954304040133
 20
130.7744189384547
 11
162.1954303779363
 21
130.2744189341085
 72
     1
 10
162.1954303779363
 20
130.2744189341085
 11
165.1954304040133
 21
129.7744189297623
 97
        0
 75
     0
 76
     1
 98
        0
  0
LWPOLYLINE
  5
C0
330
BB
100
AcDbEntity
  8
Default
  6
Continuous
 62
   176
 48
25.4
370
     9
100
AcDbPolyline
 90
        4
 70
     1
 43
0.00013
 10
165.195430404
 20
129.7744189298
 10
162.1954303779
 20
130.2744189341
 10
165.195430404
 20
130.7744189385
 10
165.195430404
 20
129.7744189298
  0
LINE
  5
C1
330
BB
100
AcDbEntity
  8
Default
  6
Continuous
 62
     7
 48
25.4
100
AcDbLine
 10
156.3954303779
 20
155.6404626061
 30
0.0
 11
156.3954303779
 21
128.7744189211
 31
0.0
  0
LINE
  5
C2
330
BB
100
AcDbEntity
  8
Default
  6
Continuous
 62
     7
 48
25.4
100
AcDbLine
 10
162.1954303779
 20
155.6404626061
 30
0.0
 11
162.1954303779
 21
128.7744189211
 31
0.0
  0
LINE
  5
C3
330
BB
100
AcDbEntity
  8
Default
  6
Continuous
 62
     7
 48
25.4
100
AcDbLine
 10
150.3954303258
 20
130.2744189341
 30
0.0
 11
168.195430822
 21
130.2744189341
 31
0.0
  0
TEXT
  5
C4
330
BB
100
AcDbEntity
  8
Default
  6
Continuous
 62
     7
 48
25.4
100
AcDbText
 10
157.2158848865
 20
131.0244189341
 30
0.0
 40
3.0
  1
5,8
  7
SEACAD_seiso_ttf
 11
157.2158848865
 21
134.0244189341
 31
0.0
100
AcDbText
 73
     3
  0
ENDBLK
  5
C6
330
BB
100
AcDbEntity
  8
0
100
AcDbBlockEnd
  0
BLOCK
  5
D3
330
C7
100
AcDbEntity
  8
0
100
AcDbBlockBegin
  2
GDimGGroup3
 70
     0
 71
     0
 10
0.0
 20
0.0
 30
0.0
  3
GDimGGroup3
  1

  0
HATCH
  5
C9
330
C7
100
AcDbEntity
  8
Default
  6
Continuous
 62
   176
 48
25.4
100
AcDbHatch
 10
0.0
 20
0.0
 30
0.0
210
0.0
220
0.0
230
1.0
  2
SOLID
 70
     1
 71
     0
 91
        1
 92
        1
 93
        3
 72
     1
 10
55.66254783343514
 20
196.6404626321512
 11
56.16254783778131
 21
193.6404626060742
 72
     1
 10
56.16254783778131
 20
193.6404626060742
 11
56.66254784212748
 21
196.6404626321512
 72
     1
 10
56.66254784212748
 20
196.6404626321512
 11
55.66254783343514
 21
196.6404626321512
 97
        0
 75
     0
 76
     1
 98
        0
  0
LWPOLYLINE
  5
CA
330
C7
100
AcDbEntity
  8
Default
  6
Continuous
 62
   176
 48
25.4
370
     9
100
AcDbPolyline
 90
        4
 70
     1
 43
0.00013
 10
55.6625478334
 20
196.6404626322
 10
56.1625478378
 20
193.6404626061
 10
56.6625478421
 20
196.6404626322
 10
55.6625478334
 20
196.6404626322
  0
HATCH
  5
CB
330
C7
100
AcDbEntity
  8
Default
  6
Continuous
 62
   176
 48
25.4
100
AcDbHatch
 10
0.0
 20
0.0
 30
0.0
210
0.0
220
0.0
230
1.0
  2
SOLID
 70
     1
 71
     0
 91
        1
 92
        1
 93
        3
 72
     1
 10
55.66254783343514
 20
200.6404623564797
 11
56.66254784212748
 21
200.6404623564797
 72
     1
 10
56.66254784212748
 20
200.6404623564797
 11
56.16254783778131
 21
203.6404623825567
 72
     1
 10
56.16254783778131
 20
203.6404623825567
 11
55.66254783343514
 21
200.6404623564797
 97
        0
 75
     0
 76
     1
 98
        0
  0
LWPOLYLINE
  5
CC
330
C7
100
AcDbEntity
  8
Default
  6
Continuous
 62
   176
 48
25.4
370
     9
100
AcDbPolyline
 90
        4
 70
     1
 43
0.00013
 10
55.6625478334
 20
200.6404623565
 10
56.1625478378
 20
203.6404623826
 10
56.6625478421
 20
200.6404623565
 10
55.6625478334
 20
200.6404623565
  0
LINE
  5
CD
330
C7
100
AcDbEntity
  8
Default
  6
Continuous
 62
     7
 48
25.4
100
AcDbLine
 10
62.4998445211
 20
193.6404626061
 30
0.0
 11
54.6625478247
 21
193.6404626061
 31
0.0
  0
LINE
  5
CE
330
C7
100
AcDbEntity
  8
Default
  6
Continuous
 62
     7
 48
25.4
100
AcDbLine
 10
62.4998445211
 20
203.6404626061
 30
0.0
 11
54.6625478247
 21
203.6404626061
 31
0.0
  0
LINE
  5
CF
330
C7
100
AcDbEntity
  8
Default
  6
Continuous
 62
     7
 48
25.4
100
AcDbLine
 10
56.1625478378
 20
193.6404626061
 30
0.0
 11
56.1625478378
 21
203.6404623826
 31
0.0
  0
TEXT
  5
D0
330
C7
100
AcDbEntity
  8
Default
  6
Continuous
 62
     7
 48
25.4
100
AcDbText
 10
55.4125478378
 20
198.9607681712
 30
0.0
 40
3.0
  1
10
 50
90.0
  7
SEACAD_seiso_ttf
 11
52.4125478378
 21
198.9607681712
 31
0.0
100
AcDbText
 73
     3
  0
TEXT
  5
D2
330
C7
100
AcDbEntity
  8
Default
  6
Continuous
 62
     7
 48
25.4
100
AcDbText
 10
55.4125478378
 20
195.3201568175
 30
0.0
 40
3.0
  1
O
 50
90.0
  7
SEACAD_semeci1_ttf
 11
52.4125478378
 21
195.3201568175
 31
0.0
100
AcDbText
 73
     3
  0
ENDBLK
  5
D4
330
C7
100
AcDbEntity
  8
0
100
AcDbBlockEnd
  0
BLOCK
  5
E0
330
D5
100
AcDbEntity
  8
0
100
AcDbBlockBegin
  2
GDimGGroup4
 70
     0
 71
     0
 10
0.0
 20
0.0
 30
0.0
  3
GDimGGroup4
  1

  0
HATCH
  5
D7
330
D5
100
AcDbEntity
  8
Default
  6
Continuous
 62
   176
 48
25.4
100
AcDbHatch
 10
0.0
 20
0.0
 30
0.0
210
0.0
220
0.0
230
1.0
  2
SOLID
 70
     1
 71
     0
 91
        1
 92
        1
 93
        3
 72
     1
 10
24.20929666530331
 20
170.640462579997
 11
25.20929667399565
 21
170.640462579997
 72
     1
 10
25.20929667399565
 20
170.640462579997
 11
24.70929666964948
 21
173.6404626060741
 72
     1
 10
24.70929666964948
 20
173.6404626060741
 11
24.20929666530331
 21
170.640462579997
 97
        0
 75
     0
 76
     1
 98
        0
  0
LWPOLYLINE
  5
D8
330
D5
100
AcDbEntity
  8
Default
  6
Continuous
 62
   176
 48
25.4
370
     9
100
AcDbPolyline
 90
        4
 70
     1
 43
0.00013
 10
24.2092966653
 20
170.64046258
 10
24.7092966696
 20
173.6404626061
 10
25.209296674
 20
170.64046258
 10
24.2092966653
 20
170.64046258
  0
HATCH
  5
D9
330
D5
100
AcDbEntity
  8
Default
  6
Continuous
 62
   176
 48
25.4
100
AcDbHatch
 10
0.0
 20
0.0
 30
0.0
210
0.0
220
0.0
230
1.0
  2
SOLID
 70
     1
 71
     0
 91
        1
 92
        1
 93
        3
 72
     1
 10
24.20929666530331
 20
183.6404626321511
 11
24.70929666964948
 21
180.6404626060741
 72
     1
 10
24.70929666964948
 20
180.6404626060741
 11
25.20929667399565
 21
183.6404626321511
 72
     1
 10
25.20929667399565
 20
183.6404626321511
 11
24.20929666530331
 21
183.6404626321511
 97
        0
 75
     0
 76
     1
 98
        0
  0
LWPOLYLINE
  5
DA
330
D5
100
AcDbEntity
  8
Default
  6
Continuous
 62
   176
 48
25.4
370
     9
100
AcDbPolyline
 90
        4
 70
     1
 43
0.00013
 10
24.2092966653
 20
183.6404626322
 10
24.7092966696
 20
180.6404626061
 10
25.209296674
 20
183.6404626322
 10
24.2092966653
 20
183.6404626322
  0
LINE
  5
DB
330
D5
100
AcDbEntity
  8
Default
  6
Continuous
 62
     7
 48
25.4
100
AcDbLine
 10
29.9998445211
 20
173.6404626061
 30
0.0
 11
23.2092966566
 21
173.6404626061
 31
0.0
  0
LINE
  5
DC
330
D5
100
AcDbEntity
  8
Default
  6
Continuous
 62
     7
 48
25.4
100
AcDbLine
 10
29.9998445211
 20
180.6404626061
 30
0.0
 11
23.2092966566
 21
180.6404626061
 31
0.0
  0
LINE
  5
DD
330
D5
100
AcDbEntity
  8
Default
  6
Continuous
 62
     7
 48
25.4
100
AcDbLine
 10
24.7092966696
 20
167.6404625539
 30
0.0
 11
24.7092966696
 21
186.6404628743
 31
0.0
  0
TEXT
  5
DE
330
D5
100
AcDbEntity
  8
Default
  6
Continuous
 62
     7
 48
25.4
100
AcDbText
 10
23.9592966696
 20
178.0389740281
 30
0.0
 40
3.0
  1
7
 50
90.0
  7
SEACAD_seiso_ttf
 11
20.9592966696
 21
178.0389740281
 31
0.0
100
AcDbText
 73
     3
  0
TEXT
  5
DF
330
D5
100
AcDbEntity
  8
Default
  6
Continuous
 62
     7
 48
25.4
100
AcDbText
 10
23.9592966696
 20
174.332860491
 30
0.0
 40
3.0
  1
q
 50
90.0
  7
SEACAD_semeci1_ttf
 11
20.9592966696
 21
174.332860491
 31
0.0
100
AcDbText
 73
     3
  0
ENDBLK
  5
E1
330
D5
100
AcDbEntity
  8
0
100
AcDbBlockEnd
  0
BLOCK
  5
ED
330
E2
100
AcDbEntity
  8
0
100
AcDbBlockBegin
  2
GDimGGroup5
 70
     0
 71
     0
 10
0.0
 20
0.0
 30
0.0
  3
GDimGGroup5
  1

  0
HATCH
  5
E4
330
E2
100
AcDbEntity
  8
Default
  6
Continuous
 62
   176
 48
25.4
100
AcDbHatch
 10
0.0
 20
0.0
 30
0.0
210
0.0
220
0.0
230
1.0
  2
SOLID
 70
     1
 71
     0
 91
        1
 92
        1
 93
        3
 72
     1
 10
15.51553025390943
 20
167.8904625799971
 11
16.51553026260178
 21
167.8904625799971
 72
     1
 10
16.51553026260178
 20
167.8904625799971
 11
16.01553025825561
 21
170.8904626060742
 72
     1
 10
16.01553025825561
 20
170.8904626060742
 11
15.51553025390943
 21
167.8904625799971
 97
        0
 75
     0
 76
     1
 98
        0
  0
LWPOLYLINE
  5
E5
330
E2
100
AcDbEntity
  8
Default
  6
Continuous
 62
   176
 48
25.4
370
     9
100
AcDbPolyline
 90
        4
 70
     1
 43
0.00013
 10
15.5155302539
 20
167.89046258
 10
16.0155302583
 20
170.8904626061
 10
16.5155302626
 20
167.89046258
 10
15.5155302539
 20
167.89046258
  0
HATCH
  5
E6
330
E2
100
AcDbEntity
  8
Default
  6
Continuous
 62
   176
 48
25.4
100
AcDbHatch
 10
0.0
 20
0.0
 30
0.0
210
0.0
220
0.0
230
1.0
  2
SOLID
 70
     1
 71
     0
 91
        1
 92
        1
 93
        3
 72
     1
 10
15.51553025390943
 20
186.3904626321511
 11
16.01553025825561
 21
183.390462606074
 72
     1
 10
16.01553025825561
 20
183.390462606074
 11
16.51553026260178
 21
186.3904626321511
 72
     1
 10
16.51553026260178
 20
186.3904626321511
 11
15.51553025390943
 21
186.3904626321511
 97
        0
 75
     0
 76
     1
 98
        0
  0
LWPOLYLINE
  5
E7
330
E2
100
AcDbEntity
  8
Default
  6
Continuous
 62
   176
 48
25.4
370
     9
100
AcDbPolyline
 90
        4
 70
     1
 43
0.00013
 10
15.5155302539
 20
186.3904626322
 10
16.0155302583
 20
183.3904626061
 10
16.5155302626
 20
186.3904626322
 10
15.5155302539
 20
186.3904626322
  0
LINE
  5
E8
330
E2
100
AcDbEntity
  8
Default
  6
Continuous
 62
     7
 48
25.4
100
AcDbLine
 10
58.9998445211
 20
170.8904626061
 30
0.0
 11
14.5155302452
 21
170.8904626061
 31
0.0
  0
LINE
  5
E9
330
E2
100
AcDbEntity
  8
Default
  6
Continuous
 62
     7
 48
25.4
100
AcDbLine
 10
58.9998445211
 20
183.3904626061
 30
0.0
 11
14.5155302452
 21
183.3904626061
 31
0.0
  0
LINE
  5
EA
330
E2
100
AcDbEntity
  8
Default
  6
Continuous
 62
     7
 48
25.4
100
AcDbLine
 10
16.0155302583
 20
164.8904625539
 30
0.0
 11
16.0155302583
 21
189.3904628445
 31
0.0
  0
TEXT
  5
EB
330
E2
100
AcDbEntity
  8
Default
  6
Continuous
 62
     7
 48
25.4
100
AcDbText
 10
15.2655302583
 20
176.301677467
 30
0.0
 40
3.0
  1
12,5
 50
90.0
  7
SEACAD_seiso_ttf
 11
12.2655302583
 21
176.301677467
 31
0.0
100
AcDbText
 73
     3
  0
TEXT
  5
EC
330
E2
100
AcDbEntity
  8
Default
  6
Continuous
 62
     7
 48
25.4
100
AcDbText
 10
15.2655302583
 20
172.6610661133
 30
0.0
 40
3.0
  1
O
 50
90.0
  7
SEACAD_semeci1_ttf
 11
12.2655302583
 21
172.6610661133
 31
0.0
100
AcDbText
 73
     3
  0
ENDBLK
  5
EE
330
E2
100
AcDbEntity
  8
0
100
AcDbBlockEnd
  0
BLOCK
  5
FA
330
EF
100
AcDbEntity
  8
0
100
AcDbBlockBegin
  2
GDimGGroup6
 70
     0
 71
     0
 10
0.0
 20
0.0
 30
0.0
  3
GDimGGroup6
  1

  0
HATCH
  5
F1
330
EF
100
AcDbEntity
  8
Default
  6
Continuous
 62
   176
 48
25.4
100
AcDbHatch
 10
0.0
 20
0.0
 30
0.0
210
0.0
220
0.0
230
1.0
  2
SOLID
 70
     1
 71
     0
 91
        1
 92
        1
 93
        3
 72
     1
 10
110.1855955761794
 20
184.1404626321511
 11
109.1855955674871
 21
184.1404626321511
 72
     1
 10
109.1855955674871
 20
184.1404626321511
 11
109.6855955718333
 21
181.1404626060741
 72
     1
 10
109.6855955718333
 20
181.1404626060741
 11
110.1855955761794
 21
184.1404626321511
 97
        0
 75
     0
 76
     1
 98
        0
  0
LWPOLYLINE
  5
F2
330
EF
100
AcDbEntity
  8
Default
  6
Continuous
 62
   176
 48
25.4
370
     9
100
AcDbPolyline
 90
        4
 70
     1
 43
0.00013
 10
110.1855955762
 20
184.1404626322
 10
109.6855955718
 20
181.1404626061
 10
109.1855955675
 20
184.1404626322
 10
110.1855955762
 20
184.1404626322
  0
HATCH
  5
F3
330
EF
100
AcDbEntity
  8
Default
  6
Continuous
 62
   176
 48
25.4
100
AcDbHatch
 10
0.0
 20
0.0
 30
0.0
210
0.0
220
0.0
230
1.0
  2
SOLID
 70
     1
 71
     0
 91
        1
 92
        1
 93
        3
 72
     1
 10
110.1855955761794
 20
170.140462579997
 11
109.6855955718333
 21
173.1404626060741
 72
     1
 10
109.6855955718333
 20
173.1404626060741
 11
109.1855955674871
 21
170.140462579997
 72
     1
 10
109.1855955674871
 20
170.140462579997
 11
110.1855955761794
 21
170.140462579997
 97
        0
 75
     0
 76
     1
 98
        0
  0
LWPOLYLINE
  5
F4
330
EF
100
AcDbEntity
  8
Default
  6
Continuous
 62
   176
 48
25.4
370
     9
100
AcDbPolyline
 90
        4
 70
     1
 43
0.00013
 10
110.1855955762
 20
170.14046258
 10
109.6855955718
 20
173.1404626061
 10
109.1855955675
 20
170.14046258
 10
110.1855955762
 20
170.14046258
  0
LINE
  5
F5
330
EF
100
AcDbEntity
  8
Default
  6
Continuous
 62
     7
 48
25.4
100
AcDbLine
 10
99.9998445211
 20
181.1404626061
 30
0.0
 11
111.1855955849
 21
181.1404626061
 31
0.0
  0
LINE
  5
F6
330
EF
100
AcDbEntity
  8
Default
  6
Continuous
 62
     7
 48
25.4
100
AcDbLine
 10
99.9998445211
 20
173.1404626061
 30
0.0
 11
111.1855955849
 21
173.1404626061
 31
0.0
  0
LINE
  5
F7
330
EF
100
AcDbEntity
  8
Default
  6
Continuous
 62
     7
 48
25.4
100
AcDbLine
 10
109.6855955718
 20
187.1404626582
 30
0.0
 11
109.6855955718
 21
167.1404621739
 31
0.0
  0
TEXT
  5
F8
330
EF
100
AcDbEntity
  8
Default
  6
Continuous
 62
     7
 48
25.4
100
AcDbText
 10
108.9355955718
 20
178.0389737301
 30
0.0
 40
3.0
  1
8
 50
90.0
  7
SEACAD_seiso_ttf
 11
105.9355955718
 21
178.0389737301
 31
0.0
100
AcDbText
 73
     3
  0
TEXT
  5
F9
330
EF
100
AcDbEntity
  8
Default
  6
Continuous
 62
     7
 48
25.4
100
AcDbText
 10
108.9355955718
 20
174.332860193
 30
0.0
 40
3.0
  1
q
 50
90.0
  7
SEACAD_semeci1_ttf
 11
105.9355955718
 21
174.332860193
 31
0.0
100
AcDbText
 73
     3
  0
ENDBLK
  5
FB
330
EF
100
AcDbEntity
  8
0
100
AcDbBlockEnd
  0
BLOCK
  5
106
330
FC
100
AcDbEntity
  8
0
100
AcDbBlockBegin
  2
GDimGGroup7
 70
     0
 71
     0
 10
0.0
 20
0.0
 30
0.0
  3
GDimGGroup7
  1

  0
HATCH
  5
FE
330
FC
100
AcDbEntity
  8
Default
  6
Continuous
 62
   176
 48
25.4
100
AcDbHatch
 10
0.0
 20
0.0
 30
0.0
210
0.0
220
0.0
230
1.0
  2
SOLID
 70
     1
 71
     0
 91
        1
 92
        1
 93
        3
 72
     1
 10
67.99984454719962
 20
220.7187223774912
 11
64.99984452112258
 21
220.2187223731451
 72
     1
 10
64.99984452112258
 20
220.2187223731451
 11
67.99984454719962
 21
219.7187223687989
 72
     1
 10
67.99984454719962
 20
219.7187223687989
 11
67.99984454719962
 21
220.7187223774912
 97
        0
 75
     0
 76
     1
 98
        0
  0
LWPOLYLINE
  5
FF
330
FC
100
AcDbEntity
  8
Default
  6
Continuous
 62
   176
 48
25.4
370
     9
100
AcDbPolyline
 90
        4
 70
     1
 43
0.00013
 10
67.9998445472
 20
220.7187223775
 10
64.9998445211
 20
220.2187223731
 10
67.9998445472
 20
219.7187223688
 10
67.9998445472
 20
220.7187223775
  0
HATCH
  5
100
330
FC
100
AcDbEntity
  8
Default
  6
Continuous
 62
   176
 48
25.4
100
AcDbHatch
 10
0.0
 20
0.0
 30
0.0
210
0.0
220
0.0
230
1.0
  2
SOLID
 70
     1
 71
     0
 91
        1
 92
        1
 93
        3
 72
     1
 10
59.49984449504554
 20
220.7187223774912
 11
59.49984449504554
 21
219.7187223687989
 72
     1
 10
59.49984449504554
 20
219.7187223687989
 11
62.49984452112258
 21
220.2187223731451
 72
     1
 10
62.49984452112258
 20
220.2187223731451
 11
59.49984449504554
 21
220.7187223774912
 97
        0
 75
     0
 76
     1
 98
        0
  0
LWPOLYLINE
  5
101
330
FC
100
AcDbEntity
  8
Default
  6
Continuous
 62
   176
 48
25.4
370
     9
100
AcDbPolyline
 90
        4
 70
     1
 43
0.00013
 10
59.499844495
 20
220.7187223775
 10
62.4998445211
 20
220.2187223731
 10
59.499844495
 20
219.7187223688
 10
59.499844495
 20
220.7187223775
  0
LINE
  5
102
330
FC
100
AcDbEntity
  8
Default
  6
Continuous
 62
     7
 48
25.4
100
AcDbLine
 10
64.9998445211
 20
209.8056149109
 30
0.0
 11
64.9998445211
 21
221.7187223862
 31
0.0
  0
LINE
  5
103
330
FC
100
AcDbEntity
  8
Default
  6
Continuous
 62
     7
 48
25.4
100
AcDbLine
 10
62.4998445211
 20
203.6404626061
 30
0.0
 11
62.4998445211
 21
221.7187223862
 31
0.0
  0
LINE
  5
104
330
FC
100
AcDbEntity
  8
Default
  6
Continuous
 62
     7
 48
25.4
100
AcDbLine
 10
74.5067732556
 20
220.2187223731
 30
0.0
 11
56.4998440592
 21
220.2187223731
 31
0.0
  0
TEXT
  5
105
330
FC
100
AcDbEntity
  8
Default
  6
Continuous
 62
     7
 48
25.4
100
AcDbText
 10
69.3658641828
 20
220.9687223731
 30
0.0
 40
3.0
  1
2,5
  7
SEACAD_seiso_ttf
 11
69.3658641828
 21
223.9687223731
 31
0.0
100
AcDbText
 73
     3
  0
ENDBLK
  5
107
330
FC
100
AcDbEntity
  8
0
100
AcDbBlockEnd
  0
BLOCK
  5
112
330
108
100
AcDbEntity
  8
0
100
AcDbBlockBegin
  2
GDimGGroup8
 70
     0
 71
     0
 10
0.0
 20
0.0
 30
0.0
  3
GDimGGroup8
  1

  0
HATCH
  5
10A
330
108
100
AcDbEntity
  8
Default
  6
Continuous
 62
   176
 48
25.4
100
AcDbHatch
 10
0.0
 20
0.0
 30
0.0
210
0.0
220
0.0
230
1.0
  2
SOLID
 70
     1
 71
     0
 91
        1
 92
        1
 93
        3
 72
     1
 10
67.99984454719962
 20
134.2234753902467
 11
67.99984454719962
 21
135.223475398939
 72
     1
 10
67.99984454719962
 20
135.223475398939
 11
64.99984452112258
 21
134.7234753945928
 72
     1
 10
64.99984452112258
 20
134.7234753945928
 11
67.99984454719962
 21
134.2234753902467
 97
        0
 75
     0
 76
     1
 98
        0
  0
LWPOLYLINE
  5
10B
330
108
100
AcDbEntity
  8
Default
  6
Continuous
 62
   176
 48
25.4
370
     9
100
AcDbPolyline
 90
        4
 70
     1
 43
0.00013
 10
67.9998445472
 20
134.2234753902
 10
64.9998445211
 20
134.7234753946
 10
67.9998445472
 20
135.2234753989
 10
67.9998445472
 20
134.2234753902
  0
HATCH
  5
10C
330
108
100
AcDbEntity
  8
Default
  6
Continuous
 62
   176
 48
25.4
100
AcDbHatch
 10
0.0
 20
0.0
 30
0.0
210
0.0
220
0.0
230
1.0
  2
SOLID
 70
     1
 71
     0
 91
        1
 92
        1
 93
        3
 72
     1
 10
55.99984449504554
 20
134.2234753902467
 11
58.99984452112258
 21
134.7234753945928
 72
     1
 10
58.99984452112258
 20
134.7234753945928
 11
55.99984449504554
 21
135.223475398939
 72
     1
 10
55.99984449504554
 20
135.223475398939
 11
55.99984449504554
 21
134.2234753902467
 97
        0
 75
     0
 76
     1
 98
        0
  0
LWPOLYLINE
  5
10D
330
108
100
AcDbEntity
  8
Default
  6
Continuous
 62
   176
 48
25.4
370
     9
100
AcDbPolyline
 90
        4
 70
     1
 43
0.00013
 10
55.999844495
 20
134.2234753902
 10
58.9998445211
 20
134.7234753946
 10
55.999844495
 20
135.2234753989
 10
55.999844495
 20
134.2234753902
  0
LINE
  5
10E
330
108
100
AcDbEntity
  8
Default
  6
Continuous
 62
     7
 48
25.4
100
AcDbLine
 10
64.9998445211
 20
144.4753103012
 30
0.0
 11
64.9998445211
 21
133.2234753816
 31
0.0
  0
LINE
  5
10F
330
108
100
AcDbEntity
  8
Default
  6
Continuous
 62
     7
 48
25.4
100
AcDbLine
 10
58.9998445211
 20
170.8904626061
 30
0.0
 11
58.9998445211
 21
133.2234753816
 31
0.0
  0
LINE
  5
110
330
108
100
AcDbEntity
  8
Default
  6
Continuous
 62
     7
 48
25.4
100
AcDbLine
 10
70.9998445733
 20
134.7234753946
 30
0.0
 11
52.9998444168
 21
134.7234753946
 31
0.0
  0
TEXT
  5
111
330
108
100
AcDbEntity
  8
Default
  6
Continuous
 62
     7
 48
25.4
100
AcDbText
 10
61.0793899496
 20
135.4734753946
 30
0.0
 40
3.0
  1
6
  7
SEACAD_seiso_ttf
 11
61.0793899496
 21
138.4734753946
 31
0.0
100
AcDbText
 73
     3
  0
ENDBLK
  5
113
330
108
100
AcDbEntity
  8
0
100
AcDbBlockEnd
  0
BLOCK
  5
11E
330
114
100
AcDbEntity
  8
0
100
AcDbBlockBegin
  2
GDimGGroup9
 70
     0
 71
     0
 10
0.0
 20
0.0
 30
0.0
  3
GDimGGroup9
  1

  0
HATCH
  5
116
330
114
100
AcDbEntity
  8
Default
  6
Continuous
 62
   176
 48
25.4
100
AcDbHatch
 10
0.0
 20
0.0
 30
0.0
210
0.0
220
0.0
230
1.0
  2
SOLID
 70
     1
 71
     0
 91
        1
 92
        1
 93
        3
 72
     1
 10
74.99984449504554
 20
126.2432338532653
 11
77.99984452112257
 21
126.7432338576114
 72
     1
 10
77.99984452112257
 20
126.7432338576114
 11
74.99984449504554
 21
127.2432338619576
 72
     1
 10
74.99984449504554
 20
127.2432338619576
 11
74.99984449504554
 21
126.2432338532653
 97
        0
 75
     0
 76
     1
 98
        0
  0
LWPOLYLINE
  5
117
330
114
100
AcDbEntity
  8
Default
  6
Continuous
 62
   176
 48
25.4
370
     9
100
AcDbPolyline
 90
        4
 70
     1
 43
0.00013
 10
74.999844495
 20
126.2432338533
 10
77.9998445211
 20
126.7432338576
 10
74.999844495
 20
127.243233862
 10
74.999844495
 20
126.2432338533
  0
HATCH
  5
118
330
114
100
AcDbEntity
  8
Default
  6
Continuous
 62
   176
 48
25.4
100
AcDbHatch
 10
0.0
 20
0.0
 30
0.0
210
0.0
220
0.0
230
1.0
  2
SOLID
 70
     1
 71
     0
 91
        1
 92
        1
 93
        3
 72
     1
 10
67.9998442789787
 20
126.2432338532653
 11
67.9998442789787
 21
127.2432338619576
 72
     1
 10
67.9998442789787
 20
127.2432338619576
 11
64.99984425290167
 21
126.7432338576114
 72
     1
 10
64.99984425290167
 20
126.7432338576114
 11
67.9998442789787
 21
126.2432338532653
 97
        0
 75
     0
 76
     1
 98
        0
  0
LWPOLYLINE
  5
119
330
114
100
AcDbEntity
  8
Default
  6
Continuous
 62
   176
 48
25.4
370
     9
100
AcDbPolyline
 90
        4
 70
     1
 43
0.00013
 10
67.999844279
 20
126.2432338533
 10
64.9998442529
 20
126.7432338576
 10
67.999844279
 20
127.243233862
 10
67.999844279
 20
126.2432338533
  0
LINE
  5
11A
330
114
100
AcDbEntity
  8
Default
  6
Continuous
 62
     7
 48
25.4
100
AcDbLine
 10
77.9998445211
 20
144.6850757133
 30
0.0
 11
77.9998445211
 21
125.2432338446
 31
0.0
  0
LINE
  5
11B
330
114
100
AcDbEntity
  8
Default
  6
Continuous
 62
     7
 48
25.4
100
AcDbLine
 10
64.9998445211
 20
144.4753103012
 30
0.0
 11
64.9998445211
 21
125.2432338446
 31
0.0
  0
LINE
  5
11C
330
114
100
AcDbEntity
  8
Default
  6
Continuous
 62
     7
 48
25.4
100
AcDbLine
 10
77.9998445211
 20
126.7432338576
 30
0.0
 11
64.9998442529
 21
126.7432338576
 31
0.0
  0
TEXT
  5
11D
330
114
100
AcDbEntity
  8
Default
  6
Continuous
 62
     7
 48
25.4
100
AcDbText
 10
70.1021171143
 20
127.4932338576
 30
0.0
 40
3.0
  1
13
  7
SEACAD_seiso_ttf
 11
70.1021171143
 21
130.4932338576
 31
0.0
100
AcDbText
 73
     3
  0
ENDBLK
  5
11F
330
114
100
AcDbEntity
  8
0
100
AcDbBlockEnd
  0
BLOCK
  5
12A
330
120
100
AcDbEntity
  8
0
100
AcDbBlockBegin
  2
GDimGGroup10
 70
     0
 71
     0
 10
0.0
 20
0.0
 30
0.0
  3
GDimGGroup10
  1

  0
HATCH
  5
122
330
120
100
AcDbEntity
  8
Default
  6
Continuous
 62
   176
 48
25.4
100
AcDbHatch
 10
0.0
 20
0.0
 30
0.0
210
0.0
220
0.0
230
1.0
  2
SOLID
 70
     1
 71
     0
 91
        1
 92
        1
 93
        3
 72
     1
 10
96.99984449504555
 20
126.3907786553568
 11
99.99984452112258
 21
126.890778659703
 72
     1
 10
99.99984452112258
 20
126.890778659703
 11
96.99984449504555
 21
127.3907786640492
 72
     1
 10
96.99984449504555
 20
127.3907786640492
 11
96.99984449504555
 21
126.3907786553568
 97
        0
 75
     0
 76
     1
 98
        0
  0
LWPOLYLINE
  5
123
330
120
100
AcDbEntity
  8
Default
  6
Continuous
 62
   176
 48
25.4
370
     9
100
AcDbPolyline
 90
        4
 70
     1
 43
0.00013
 10
96.999844495
 20
126.3907786554
 10
99.9998445211
 20
126.8907786597
 10
96.999844495
 20
127.390778664
 10
96.999844495
 20
126.3907786554
  0
HATCH
  5
124
330
120
100
AcDbEntity
  8
Default
  6
Continuous
 62
   176
 48
25.4
100
AcDbHatch
 10
0.0
 20
0.0
 30
0.0
210
0.0
220
0.0
230
1.0
  2
SOLID
 70
     1
 71
     0
 91
        1
 92
        1
 93
        3
 72
     1
 10
80.9998446664089
 20
126.3907786553568
 11
80.9998446664089
 21
127.3907786640492
 72
     1
 10
80.9998446664089
 20
127.3907786640492
 11
77.99984464033187
 21
126.890778659703
 72
     1
 10
77.99984464033187
 20
126.890778659703
 11
80.9998446664089
 21
126.3907786553568
 97
        0
 75
     0
 76
     1
 98
        0
  0
LWPOLYLINE
  5
125
330
120
100
AcDbEntity
  8
Default
  6
Continuous
 62
   176
 48
25.4
370
     9
100
AcDbPolyline
 90
        4
 70
     1
 43
0.00013
 10
80.9998446664
 20
126.3907786554
 10
77.9998446403
 20
126.8907786597
 10
80.9998446664
 20
127.390778664
 10
80.9998446664
 20
126.3907786554
  0
LINE
  5
126
330
120
100
AcDbEntity
  8
Default
  6
Continuous
 62
     7
 48
25.4
100
AcDbLine
 10
99.9998445211
 20
173.1404626061
 30
0.0
 11
99.9998445211
 21
125.3907786467
 31
0.0
  0
LINE
  5
127
330
120
100
AcDbEntity
  8
Default
  6
Continuous
 62
     7
 48
25.4
100
AcDbLine
 10
77.9998445211
 20
144.6850757133
 30
0.0
 11
77.9998445211
 21
125.3907786467
 31
0.0
  0
LINE
  5
128
330
120
100
AcDbEntity
  8
Default
  6
Continuous
 62
     7
 48
25.4
100
AcDbLine
 10
99.9998445211
 20
126.8907786597
 30
0.0
 11
77.9998446403
 21
126.8907786597
 31
0.0
  0
TEXT
  5
129
330
120
100
AcDbEntity
  8
Default
  6
Continuous
 62
     7
 48
25.4
100
AcDbText
 10
87.1589354898
 20
127.6407786597
 30
0.0
 40
3.0
  1
22
  7
SEACAD_seiso_ttf
 11
87.1589354898
 21
130.6407786597
 31
0.0
100
AcDbText
 73
     3
  0
ENDBLK
  5
12B
330
120
100
AcDbEntity
  8
0
100
AcDbBlockEnd
  0
BLOCK
  5
136
330
12C
100
AcDbEntity
  8
0
100
AcDbBlockBegin
  2
GDimGGroup11
 70
     0
 71
     0
 10
0.0
 20
0.0
 30
0.0
  3
GDimGGroup11
  1

  0
HATCH
  5
12E
330
12C
100
AcDbEntity
  8
Default
  6
Continuous
 62
   176
 48
25.4
100
AcDbHatch
 10
0.0
 20
0.0
 30
0.0
210
0.0
220
0.0
230
1.0
  2
SOLID
 70
     1
 71
     0
 91
        1
 92
        1
 93
        3
 72
     1
 10
61.99984449504554
 20
126.2257791023166
 11
64.99984452112258
 21
126.7257791066628
 72
     1
 10
64.99984452112258
 20
126.7257791066628
 11
61.99984449504555
 21
127.225779111009
 72
     1
 10
61.99984449504554
 20
127.225779111009
 11
61.99984449504554
 21
126.2257791023166
 97
        0
 75
     0
 76
     1
 98
        0
  0
LWPOLYLINE
  5
12F
330
12C
100
AcDbEntity
  8
Default
  6
Continuous
 62
   176
 48
25.4
370
     9
100
AcDbPolyline
 90
        4
 70
     1
 43
0.00013
 10
61.999844495
 20
126.2257791023
 10
64.9998445211
 20
126.7257791067
 10
61.999844495
 20
127.225779111
 10
61.999844495
 20
126.2257791023
  0
HATCH
  5
130
330
12C
100
AcDbEntity
  8
Default
  6
Continuous
 62
   176
 48
25.4
100
AcDbHatch
 10
0.0
 20
0.0
 30
0.0
210
0.0
220
0.0
230
1.0
  2
SOLID
 70
     1
 71
     0
 91
        1
 92
        1
 93
        3
 72
     1
 10
32.999844398188
 20
126.2257791023166
 11
32.999844398188
 21
127.225779111009
 72
     1
 10
32.999844398188
 20
127.225779111009
 11
29.99984437211096
 21
126.7257791066628
 72
     1
 10
29.99984437211096
 20
126.7257791066628
 11
32.999844398188
 21
126.2257791023166
 97
        0
 75
     0
 76
     1
 98
        0
  0
LWPOLYLINE
  5
131
330
12C
100
AcDbEntity
  8
Default
  6
Continuous
 62
   176
 48
25.4
370
     9
100
AcDbPolyline
 90
        4
 70
     1
 43
0.00013
 10
32.9998443982
 20
126.2257791023
 10
29.9998443721
 20
126.7257791067
 10
32.9998443982
 20
127.225779111
 10
32.9998443982
 20
126.2257791023
  0
LINE
  5
132
330
12C
100
AcDbEntity
  8
Default
  6
Continuous
 62
     7
 48
25.4
100
AcDbLine
 10
64.9998445211
 20
144.4753103012
 30
0.0
 11
64.9998445211
 21
125.2257790936
 31
0.0
  0
LINE
  5
133
330
12C
100
AcDbEntity
  8
Default
  6
Continuous
 62
     7
 48
25.4
100
AcDbLine
 10
29.9998445211
 20
173.6404626061
 30
0.0
 11
29.9998445211
 21
125.2257790936
 31
0.0
  0
LINE
  5
134
330
12C
100
AcDbEntity
  8
Default
  6
Continuous
 62
     7
 48
25.4
100
AcDbLine
 10
64.9998445211
 20
126.7257791067
 30
0.0
 11
29.9998443721
 21
126.7257791067
 31
0.0
  0
TEXT
  5
135
330
12C
100
AcDbEntity
  8
Default
  6
Continuous
 62
     7
 48
25.4
100
AcDbText
 10
45.8634808103
 20
127.4757791067
 30
0.0
 40
3.0
  1
35
  7
SEACAD_seiso_ttf
 11
45.8634808103
 21
130.4757791067
 31
0.0
100
AcDbText
 73
     3
  0
ENDBLK
  5
137
330
12C
100
AcDbEntity
  8
0
100
AcDbBlockEnd
  0
BLOCK
  5
143
330
138
100
AcDbEntity
  8
0
100
AcDbBlockBegin
  2
GDimGGroup12
 70
     0
 71
     0
 10
0.0
 20
0.0
 30
0.0
  3
GDimGGroup12
  1

  0
HATCH
  5
13A
330
138
100
AcDbEntity
  8
Default
  6
Continuous
 62
   176
 48
25.4
100
AcDbHatch
 10
0.0
 20
0.0
 30
0.0
210
0.0
220
0.0
230
1.0
  2
SOLID
 70
     1
 71
     0
 91
        1
 92
        1
 93
        3
 72
     1
 10
118.7985021215801
 20
182.3904625799971
 11
118.2985021172339
 21
185.3904626060741
 72
     1
 10
118.2985021172339
 20
185.3904626060741
 11
117.7985021128877
 21
182.3904625799971
 72
     1
 10
117.7985021128877
 20
182.3904625799971
 11
118.7985021215801
 21
182.3904625799971
 97
        0
 75
     0
 76
     1
 98
        0
  0
LWPOLYLINE
  5
13B
330
138
100
AcDbEntity
  8
Default
  6
Continuous
 62
   176
 48
25.4
370
     9
100
AcDbPolyline
 90
        4
 70
     1
 43
0.00013
 10
118.7985021216
 20
182.39046258
 10
118.2985021172
 20
185.3904626061
 10
117.7985021129
 20
182.39046258
 10
118.7985021216
 20
182.39046258
  0
HATCH
  5
13C
330
138
100
AcDbEntity
  8
Default
  6
Continuous
 62
   176
 48
25.4
100
AcDbHatch
 10
0.0
 20
0.0
 30
0.0
210
0.0
220
0.0
230
1.0
  2
SOLID
 70
     1
 71
     0
 91
        1
 92
        1
 93
        3
 72
     1
 10
118.7985021215801
 20
171.8904627215581
 11
117.7985021128877
 21
171.8904627215581
 72
     1
 10
117.7985021128877
 20
171.8904627215581
 11
118.2985021172339
 21
168.8904626954811
 72
     1
 10
118.2985021172339
 20
168.8904626954811
 11
118.7985021215801
 21
171.8904627215581
 97
        0
 75
     0
 76
     1
 98
        0
  0
LWPOLYLINE
  5
13D
330
138
100
AcDbEntity
  8
Default
  6
Continuous
 62
   176
 48
25.4
370
     9
100
AcDbPolyline
 90
        4
 70
     1
 43
0.00013
 10
118.7985021216
 20
171.8904627216
 10
118.2985021172
 20
168.8904626955
 10
117.7985021129
 20
171.8904627216
 10
118.7985021216
 20
171.8904627216
  0
LINE
  5
13E
330
138
100
AcDbEntity
  8
Default
  6
Continuous
 62
     7
 48
25.4
100
AcDbLine
 10
75.9998442976
 20
185.3904626061
 30
0.0
 11
119.7985021303
 21
185.3904626061
 31
0.0
  0
LINE
  5
13F
330
138
100
AcDbEntity
  8
Default
  6
Continuous
 62
     7
 48
25.4
100
AcDbLine
 10
75.9998442976
 20
168.8904626061
 30
0.0
 11
119.7985021303
 21
168.8904626061
 31
0.0
  0
LINE
  5
140
330
138
100
AcDbEntity
  8
Default
  6
Continuous
 62
     7
 48
25.4
100
AcDbLine
 10
118.2985021172
 20
185.3904626061
 30
0.0
 11
118.2985021172
 21
168.8904626955
 31
0.0
  0
TEXT
  5
141
330
138
100
AcDbEntity
  8
Default
  6
Continuous
 62
     7
 48
25.4
100
AcDbText
 10
117.5485021172
 20
176.3016774185
 30
0.0
 40
3.0
  1
16,5
 50
90.0
  7
SEACAD_seiso_ttf
 11
114.5485021172
 21
176.3016774185
 31
0.0
100
AcDbText
 73
     3
  0
TEXT
  5
142
330
138
100
AcDbEntity
  8
Default
  6
Continuous
 62
     7
 48
25.4
100
AcDbText
 10
117.5485021172
 20
172.6610660648
 30
0.0
 40
3.0
  1
O
 50
90.0
  7
SEACAD_semeci1_ttf
 11
114.5485021172
 21
172.6610660648
 31
0.0
100
AcDbText
 73
     3
  0
ENDBLK
  5
144
330
138
100
AcDbEntity
  8
0
100
AcDbBlockEnd
  0
BLOCK
  5
14F
330
145
100
AcDbEntity
  8
0
100
AcDbBlockBegin
  2
GDimGGroup13
 70
     0
 71
     0
 10
0.0
 20
0.0
 30
0.0
  3
GDimGGroup13
  1

  0
HATCH
  5
147
330
145
100
AcDbEntity
  8
Default
  6
Continuous
 62
   176
 48
25.4
100
AcDbHatch
 10
0.0
 20
0.0
 30
0.0
210
0.0
220
0.0
230
1.0
  2
SOLID
 70
     1
 71
     0
 91
        1
 92
        1
 93
        3
 72
     1
 10
195.9784385697707
 20
207.8054625799971
 11
195.4784385654245
 21
210.8054626060741
 72
     1
 10
195.4784385654245
 20
210.8054626060741
 11
194.9784385610784
 21
207.8054625799971
 72
     1
 10
194.9784385610784
 20
207.8054625799971
 11
195.9784385697707
 21
207.8054625799971
 97
        0
 75
     0
 76
     1
 98
        0
  0
LWPOLYLINE
  5
148
330
145
100
AcDbEntity
  8
Default
  6
Continuous
 62
   176
 48
25.4
370
     9
100
AcDbPolyline
 90
        4
 70
     1
 43
0.00013
 10
195.9784385698
 20
207.80546258
 10
195.4784385654
 20
210.8054626061
 10
194.9784385611
 20
207.80546258
 10
195.9784385698
 20
207.80546258
  0
HATCH
  5
149
330
145
100
AcDbEntity
  8
Default
  6
Continuous
 62
   176
 48
25.4
100
AcDbHatch
 10
0.0
 20
0.0
 30
0.0
210
0.0
220
0.0
230
1.0
  2
SOLID
 70
     1
 71
     0
 91
        1
 92
        1
 93
        3
 72
     1
 10
195.9784385697707
 20
146.4754598474221
 11
194.9784385610784
 21
146.4754598474221
 72
     1
 10
194.9784385610784
 20
146.4754598474221
 11
195.4784385654245
 21
143.4754598213451
 72
     1
 10
195.4784385654245
 20
143.4754598213451
 11
195.9784385697707
 21
146.4754598474221
 97
        0
 75
     0
 76
     1
 98
        0
  0
LWPOLYLINE
  5
14A
330
145
100
AcDbEntity
  8
Default
  6
Continuous
 62
   176
 48
25.4
370
     9
100
AcDbPolyline
 90
        4
 70
     1
 43
0.00013
 10
195.9784385698
 20
146.4754598474
 10
195.4784385654
 20
143.4754598213
 10
194.9784385611
 20
146.4754598474
 10
195.9784385698
 20
146.4754598474
  0
LINE
  5
14B
330
145
100
AcDbEntity
  8
Default
  6
Continuous
 62
     7
 48
25.4
100
AcDbLine
 10
174.9605826828
 20
210.8054626061
 30
0.0
 11
196.9784385785
 21
210.8054626061
 31
0.0
  0
LINE
  5
14C
330
145
100
AcDbEntity
  8
Default
  6
Continuous
 62
     7
 48
25.4
100
AcDbLine
 10
174.9605826828
 20
143.4754626061
 30
0.0
 11
196.9784385785
 21
143.4754626061
 31
0.0
  0
LINE
  5
14D
330
145
100
AcDbEntity
  8
Default
  6
Continuous
 62
     7
 48
25.4
100
AcDbLine
 10
195.4784385654
 20
210.8054626061
 30
0.0
 11
195.4784385654
 21
143.4754598213
 31
0.0
  0
TEXT
  5
14E
330
145
100
AcDbEntity
  8
Default
  6
Continuous
 62
     7
 48
25.4
100
AcDbText
 10
194.7284385654
 20
174.2086430319
 30
0.0
 40
3.0
  1
67,3
 50
90.0
  7
SEACAD_seiso_ttf
 11
191.7284385654
 21
174.2086430319
 31
0.0
100
AcDbText
 73
     3
  0
ENDBLK
  5
150
330
145
100
AcDbEntity
  8
0
100
AcDbBlockEnd
  0
ENDSEC
  0
SECTION
  2
ENTITIES
  0
TEXT
  5
2B
330
1F
100
AcDbEntity
  8
Default
  6
Continuous
 62
     7
 48
25.4
100
AcDbText
 10
92.5998389649
 20
57.4473171714
 30
0.0
 40
5.0
  1
41.407
  7
SEACAD_seiso_ttf
 11
92.5998389649
 21
62.4473171714
 31
0.0
100
AcDbText
 73
     3
  0
INSERT
  5
2E
330
1F
100
AcDbEntity
  8
Default
100
AcDbBlockReference
  2
SEANNOT_GROUP
 10
0.0
 20
0.0
 30
0.0
  0
INSERT
  5
39
330
1F
100
AcDbEntity
  8
Default
100
AcDbBlockReference
  2
SEANNOT_GROUP1
 10
0.0
 20
0.0
 30
0.0
  0
INSERT
  5
3E
330
1F
100
AcDbEntity
  8
Default
100
AcDbBlockReference
  2
SEANNOT_GROUP2
 10
0.0
 20
0.0
 30
0.0
  0
INSERT
  5
43
330
1F
100
AcDbEntity
  8
Default
100
AcDbBlockReference
  2
SEANNOT_GROUP3
 10
0.0
 20
0.0
 30
0.0
  0
INSERT
  5
48
102
{ACAD_XDICTIONARY
360
6D
102
}
330
1F
100
AcDbEntity
  8
0
100
AcDbBlockReference
  2
SE
 10
0.0
 20
0.0
 30
0.0
  0
INSERT
  5
73
102
{ACAD_XDICTIONARY
360
9E
102
}
330
1F
100
AcDbEntity
  8
0
100
AcDbBlockReference
  2
SE1
 10
0.0
 20
0.0
 30
0.0
  0
INSERT
  5
A4
330
1F
100
AcDbEntity
  8
Default
100
AcDbBlockReference
  2
GDimGGroup
 10
0.0
 20
0.0
 30
0.0
  0
INSERT
  5
B0
330
1F
100
AcDbEntity
  8
Default
100
AcDbBlockReference
  2
GDimGGroup1
 10
0.0
 20
0.0
 30
0.0
  0
INSERT
  5
BC
330
1F
100
AcDbEntity
  8
Default
100
AcDbBlockReference
  2
GDimGGroup2
 10
0.0
 20
0.0
 30
0.0
  0
INSERT
  5
C8
330
1F
100
AcDbEntity
  8
Default
100
AcDbBlockReference
  2
GDimGGroup3
 10
0.0
 20
0.0
 30
0.0
  0
INSERT
  5
D6
330
1F
100
AcDbEntity
  8
Default
100
AcDbBlockReference
  2
GDimGGroup4
 10
0.0
 20
0.0
 30
0.0
  0
INSERT
  5
E3
330
1F
100
AcDbEntity
  8
Default
100
AcDbBlockReference
  2
GDimGGroup5
 10
0.0
 20
0.0
 30
0.0
  0
INSERT
  5
F0
330
1F
100
AcDbEntity
  8
Default
100
AcDbBlockReference
  2
GDimGGroup6
 10
0.0
 20
0.0
 30
0.0
  0
INSERT
  5
FD
330
1F
100
AcDbEntity
  8
Default
100
AcDbBlockReference
  2
GDimGGroup7
 10
0.0
 20
0.0
 30
0.0
  0
INSERT
  5
109
330
1F
100
AcDbEntity
  8
Default
100
AcDbBlockReference
  2
GDimGGroup8
 10
0.0
 20
0.0
 30
0.0
  0
INSERT
  5
115
330
1F
100
AcDbEntity
  8
Default
100
AcDbBlockReference
  2
GDimGGroup9
 10
0.0
 20
0.0
 30
0.0
  0
INSERT
  5
121
330
1F
100
AcDbEntity
  8
Default
100
AcDbBlockReference
  2
GDimGGroup10
 10
0.0
 20
0.0
 30
0.0
  0
INSERT
  5
12D
330
1F
100
AcDbEntity
  8
Default
100
AcDbBlockReference
  2
GDimGGroup11
 10
0.0
 20
0.0
 30
0.0
  0
INSERT
  5
139
330
1F
100
AcDbEntity
  8
Default
100
AcDbBlockReference
  2
GDimGGroup12
 10
0.0
 20
0.0
 30
0.0
  0
INSERT
  5
146
330
1F
100
AcDbEntity
  8
Default
100
AcDbBlockReference
  2
GDimGGroup13
 10
0.0
 20
0.0
 30
0.0
  0
ENDSEC
  0
SECTION
  2
OBJECTS
  0
DICTIONARY
  5
C
330
0
100
AcDbDictionary
281
     1
  3
ACAD_GROUP
350
D
  3
ACAD_LAYOUT
350
1A
  3
ACAD_MLINESTYLE
350
17
  3
ACAD_PLOTSETTINGS
350
19
  3
ACAD_PLOTSTYLENAME
350
E
  0
DICTIONARY
  5
6D
330
48
100
AcDbDictionary
280
     1
281
     1
  3
ACAD_FILTER
360
6E
  0
DICTIONARY
  5
9E
330
73
100
AcDbDictionary
280
     1
281
     1
  3
ACAD_FILTER
360
9F
  0
DICTIONARY
  5
D
102
{ACAD_REACTORS
330
C
102
}
330
C
100
AcDbDictionary
281
     1
  0
DICTIONARY
  5
1A
102
{ACAD_REACTORS
330
C
102
}
330
C
100
AcDbDictionary
281
     1
  3
Layout1
350
1E
  3
Model
350
22
  0
DICTIONARY
  5
17
102
{ACAD_REACTORS
330
C
102
}
330
C
100
AcDbDictionary
281
     1
  3
Standard
350
18
  0
DICTIONARY
  5
19
102
{ACAD_REACTORS
330
C
102
}
330
C
100
AcDbDictionary
281
     1
  0
ACDBDICTIONARYWDFLT
  5
E
102
{ACAD_REACTORS
330
C
102
}
330
C
100
AcDbDictionary
281
     1
  3
Normal
350
F
100
AcDbDictionaryWithDefault
340
F
  0
DICTIONARY
  5
6E
102
{ACAD_REACTORS
330
6D
102
}
330
6D
100
AcDbDictionary
281
     1
  3
SPATIAL
360
6F
  0
DICTIONARY
  5
9F
102
{ACAD_REACTORS
330
9E
102
}
330
9E
100
AcDbDictionary
281
     1
  3
SPATIAL
360
A0
  0
LAYOUT
  5
1E
102
{ACAD_REACTORS
330
1A
102
}
330
1A
100
AcDbPlotSettings
  1

  2

  4

  6

 40
0.0
 41
0.0
 42
0.0
 43
0.0
 44
0.0
 45
0.0
 46
0.0
 47
0.0
 48
0.0
 49
0.0
140
0.0
141
0.0
142
1.0
143
1.0
 70
   688
 72
     0
 73
     0
 74
     5
  7

 75
    16
147
1.0
148
0.0
149
0.0
100
AcDbLayout
  1
Layout1
 70
     1
 71
     1
 10
0.0
 20
0.0
 11
210.0
 21
297.0
 12
0.0
 22
0.0
 32
0.0
 14
0.0
 24
0.0
 34
0.0
 15
210.0
 25
297.0
 35
0.0
146
0.0
 13
0.0
 23
0.0
 33
0.0
 16
1.0
 26
0.0
 36
0.0
 17
0.0
 27
1.0
 37
0.0
 76
     0
330
1B
  0
LAYOUT
  5
22
102
{ACAD_REACTORS
330
1A
102
}
330
1A
100
AcDbPlotSettings
  1

  2

  4

  6

 40
0.0
 41
0.0
 42
0.0
 43
0.0
 44
0.0
 45
0.0
 46
0.0
 47
0.0
 48
0.0
 49
0.0
140
0.0
141
0.0
142
1.0
143
1.0
 70
  1712
 72
     0
 73
     0
 74
     0
  7

 75
     0
147
1.0
148
0.0
149
0.0
100
AcDbLayout
  1
Model
 70
     1
 71
     0
 10
0.0
 20
0.0
 11
210.0
 21
297.0
 12
0.0
 22
0.0
 32
0.0
 14
0.0
 24
0.0
 34
0.0
 15
210.0
 25
297.0
 35
0.0
146
0.0
 13
0.0
 23
0.0
 33
0.0
 16
1.0
 26
0.0
 36
0.0
 17
0.0
 27
1.0
 37
0.0
 76
     0
330
1F
  0
MLINESTYLE
  5
18
102
{ACAD_REACTORS
330
17
102
}
330
17
100
AcDbMlineStyle
  2
Standard
 70
     0
  3

 62
   256
 51
90.0
 52
90.0
 71
     2
 49
0.5
 62
   256
  6
BYLAYER
 49
-0.5
 62
   256
  6
BYLAYER
  0
ACDBPLACEHOLDER
  5
F
102
{ACAD_REACTORS
330
E
102
}
330
E
  0
SPATIAL_FILTER
  5
6F
102
{ACAD_REACTORS
330
6E
102
}
330
6E
100
AcDbFilter
100
AcDbSpatialFilter
 70
     2
 10
23.6498445211
 20
137.1254626061
 10
106.3498445211
 20
217.1554626061
210
0.0
220
0.0
230
1.0
 11
0.0
 21
0.0
 31
0.0
 71
     1
 72
     0
 73
     0
 40
1.0
 40
0.0
 40
0.0
 40
0.0
 40
0.0
 40
1.0
 40
0.0
 40
0.0
 40
0.0
 40
0.0
 40
1.0
 40
0.0
 40
1.0
 40
0.0
 40
0.0
 40
0.0
 40
0.0
 40
1.0
 40
0.0
 40
0.0
 40
0.0
 40
0.0
 40
1.0
 40
0.0
  0
SPATIAL_FILTER
  5
A0
102
{ACAD_REACTORS
330
9F
102
}
330
9F
100
AcDbFilter
100
AcDbSpatialFilter
 70
     2
 10
135.5302780731
 20
136.3753103012
 10
183.0605826828
 20
217.9056149109
210
0.0
220
0.0
230
1.0
 11
0.0
 21
0.0
 31
0.0
 71
     1
 72
     0
 73
     0
 40
1.0
 40
0.0
 40
0.0
 40
0.0
 40
0.0
 40
1.0
 40
0.0
 40
0.0
 40
0.0
 40
0.0
 40
1.0
 40
0.0
 40
1.0
 40
0.0
 40
0.0
 40
0.0
 40
0.0
 40
1.0
 40
0.0
 40
0.0
 40
0.0
 40
0.0
 40
1.0
 40
0.0
  0
ENDSEC
  0
EOF
