  0
SECTION
  2
HEADER
  9
$ACADVER
  1
AC1015
  9
$ACADMAINTVER
 70
     6
  9
$DWGCODEPAGE
  3
ANSI_932
  9
$INSBASE
 10
0.0
 20
0.0
 30
0.0
  9
$EXTMIN
 10
21.166667
 20
4.027317
 30
1.000000E+20
  9
$EXTMAX
 10
168.494108
 20
196.144444
 30
-1.000000E+20
  9
$LIMMIN
 10
21.166667
 20
4.027317
  9
$LIMMAX
 10
168.494108
 20
196.144444
  9
$ORTHOMODE
 70
     0
  9
$REGENMODE
 70
     1
  9
$FILLMODE
 70
     1
  9
$QTEXTMODE
 70
     0
  9
$MIRRTEXT
 70
     1
  9
$LTSCALE
 40
1.0
  9
$ATTMODE
 70
     1
  9
$TEXTSIZE
 40
0.2
  9
$TRACEWID
 40
0.05
  9
$TEXTSTYLE
  7
Standard
  9
$CLAYER
  8
0
  9
$CELTYPE
  6
Continuous
  9
$CECOLOR
 62
   256
  9
$CELTSCALE
 40
1.0
  9
$DISPSILH
 70
     0
  9
$DIMSCALE
 40
1.0
  9
$DIMASZ
 40
0.18
  9
$DIMEXO
 40
0.0625
  9
$DIMDLI
 40
0.38
  9
$DIMRND
 40
0.0
  9
$DIMDLE
 40
0.0
  9
$DIMEXE
 40
0.18
  9
$DIMTP
 40
0.0
  9
$DIMTM
 40
0.0
  9
$DIMTXT
 40
0.18
  9
$DIMCEN
 40
0.09
  9
$DIMTSZ
 40
0.0
  9
$DIMTOL
 70
     0
  9
$DIMLIM
 70
     0
  9
$DIMTIH
 70
     1
  9
$DIMTOH
 70
     1
  9
$DIMSE1
 70
     0
  9
$DIMSE2
 70
     0
  9
$DIMTAD
 70
     0
  9
$DIMZIN
 70
     0
  9
$DIMBLK
  1

  9
$DIMASO
 70
     1
  9
$DIMSHO
 70
     1
  9
$DIMPOST
  1

  9
$DIMAPOST
  1

  9
$DIMALT
 70
     0
  9
$DIMALTD
 70
     2
  9
$DIMALTF
 40
25.4
  9
$DIMLFAC
 40
1.0
  9
$DIMTOFL
 70
     0
  9
$DIMTVP
 40
0.0
  9
$DIMTIX
 70
     0
  9
$DIMSOXD
 70
     0
  9
$DIMSAH
 70
     0
  9
$DIMBLK1
  1

  9
$DIMBLK2
  1

  9
$DIMSTYLE
  2
Standard
  9
$DIMCLRD
 70
     0
  9
$DIMCLRE
 70
     0
  9
$DIMCLRT
 70
     0
  9
$DIMTFAC
 40
1.0
  9
$DIMGAP
 40
0.09
  9
$DIMJUST
 70
     0
  9
$DIMSD1
 70
     0
  9
$DIMSD2
 70
     0
  9
$DIMTOLJ
 70
     1
  9
$DIMTZIN
 70
     0
  9
$DIMALTZ
 70
     0
  9
$DIMALTTZ
 70
     0
  9
$DIMUPT
 70
     0
  9
$DIMDEC
 70
     4
  9
$DIMTDEC
 70
     4
  9
$DIMALTU
 70
     2
  9
$DIMALTTD
 70
     2
  9
$DIMTXSTY
  7
Standard
  9
$DIMAUNIT
 70
     0
  9
$DIMADEC
 70
     0
  9
$DIMALTRND
 40
0.0
  9
$DIMAZIN
 70
     0
  9
$DIMDSEP
 70
     0
  9
$DIMATFIT
 70
     3
  9
$DIMFRAC
 70
     0
  9
$DIMLDRBLK
  1

  9
$DIMLUNIT
 70
     2
  9
$DIMLWD
 70
     0
  9
$DIMLWE
 70
     0
  9
$DIMTMOVE
 70
     0
  9
$LUNITS
 70
     2
  9
$LUPREC
 70
     4
  9
$SKETCHINC
 40
0.1
  9
$FILLETRAD
 40
0.0
  9
$AUNITS
 70
     0
  9
$AUPREC
 70
     0
  9
$MENU
  1
acad
  9
$ELEVATION
 40
0.0
  9
$PELEVATION
 40
0.0
  9
$THICKNESS
 40
0.0
  9
$LIMCHECK
 70
     0
  9
$CHAMFERA
 40
0.0
  9
$CHAMFERB
 40
0.0
  9
$CHAMFERC
 40
0.0
  9
$CHAMFERD
 40
0.0
  9
$SKPOLY
 70
     0
  9
$TDCREATE
 40
0.000000000
  9
$TDUCREATE
 40
0.000000000
  9
$TDUPDATE
 40
0.000000000
  9
$TDUUPDATE
 40
0.000000000
  9
$TDINDWG
 40
0.0000000000
  9
$TDUSRTIMER
 40
0.0000000000
  9
$USRTIMER
 70
     1
  9
$ANGBASE
 50
0.0
  9
$ANGDIR
 70
     0
  9
$PDMODE
 70
     0
  9
$PDSIZE
 40
0.0
  9
$PLINEWID
 40
0.0
  9
$SPLFRAME
 70
     0
  9
$SPLINETYPE
 70
     6
  9
$SPLINESEGS
 70
     8
  9
$HANDSEED
  5
5B6
  9
$SURFTAB1
 70
     6
  9
$SURFTAB2
 70
     6
  9
$SURFTYPE
 70
     6
  9
$SURFU
 70
     6
  9
$SURFV
 70
     6
  9
$UCSBASE
  2

  9
$UCSNAME
  2

  9
$UCSORG
 10
0.0
 20
0.0
 30
0.0
  9
$UCSXDIR
 10
1.0
 20
0.0
 30
0.0
  9
$UCSYDIR
 10
0.0
 20
1.0
 30
0.0
  9
$UCSORTHOREF
  2

  9
$UCSORTHOVIEW
 70
     0
  9
$UCSORGTOP
 10
0.0
 20
0.0
 30
0.0
  9
$UCSORGBOTTOM
 10
0.0
 20
0.0
 30
0.0
  9
$UCSORGLEFT
 10
0.0
 20
0.0
 30
0.0
  9
$UCSORGRIGHT
 10
0.0
 20
0.0
 30
0.0
  9
$UCSORGFRONT
 10
0.0
 20
0.0
 30
0.0
  9
$UCSORGBACK
 10
0.0
 20
0.0
 30
0.0
  9
$PUCSBASE
  2

  9
$PUCSNAME
  2

  9
$PUCSORG
 10
0.0
 20
0.0
 30
0.0
  9
$PUCSXDIR
 10
1.0
 20
0.0
 30
0.0
  9
$PUCSYDIR
 10
0.0
 20
1.0
 30
0.0
  9
$PUCSORTHOREF
  2

  9
$PUCSORTHOVIEW
 70
     0
  9
$PUCSORGTOP
 10
0.0
 20
0.0
 30
0.0
  9
$PUCSORGBOTTOM
 10
0.0
 20
0.0
 30
0.0
  9
$PUCSORGLEFT
 10
0.0
 20
0.0
 30
0.0
  9
$PUCSORGRIGHT
 10
0.0
 20
0.0
 30
0.0
  9
$PUCSORGFRONT
 10
0.0
 20
0.0
 30
0.0
  9
$PUCSORGBACK
 10
0.0
 20
0.0
 30
0.0
  9
$USERI1
 70
     0
  9
$USERI2
 70
     0
  9
$USERI3
 70
     0
  9
$USERI4
 70
     0
  9
$USERI5
 70
     0
  9
$USERR1
 40
0.0
  9
$USERR2
 40
0.0
  9
$USERR3
 40
0.0
  9
$USERR4
 40
0.0
  9
$USERR5
 40
0.0
  9
$WORLDVIEW
 70
     1
  9
$SHADEDGE
 70
     3
  9
$SHADEDIF
 70
    70
  9
$TILEMODE
 70
     1
  9
$MAXACTVP
 70
    16
  9
$PINSBASE
 10
0.0
 20
0.0
 30
0.0
  9
$PLIMCHECK
 70
     0
  9
$PEXTMIN
 10
1.000000E+20
 20
1.000000E+20
 30
1.000000E+20
  9
$PEXTMAX
 10
-1.000000E+20
 20
-1.000000E+20
 30
-1.000000E+20
  9
$PLIMMIN
 10
0.0
 20
0.0
  9
$PLIMMAX
 10
12.0
 20
9.0
  9
$UNITMODE
 70
     0
  9
$VISRETAIN
 70
     0
  9
$PLINEGEN
 70
     1
  9
$PSLTSCALE
 70
     0
  9
$TREEDEPTH
 70
  3020
  9
$CMLSTYLE
  2
Standard
  9
$CMLJUST
 70
     0
  9
$CMLSCALE
 40
1.0
  9
$PROXYGRAPHICS
 70
     0
  9
$MEASUREMENT
 70
     1
  9
$CELWEIGHT
370
     0
  9
$ENDCAPS
280
     0
  9
$JOINSTYLE
280
     0
  9
$LWDISPLAY
290
     0
  9
$INSUNITS
 70
     0
  9
$HYPERLINKBASE
  1

  9
$STYLESHEET
  1

  9
$XEDIT
290
     1
  9
$CEPSNTYPE
380
     0
  9
$PSTYLEMODE
290
     1
  9
$FINGERPRINTGUID
  2

  9
$VERSIONGUID
  2

  9
$EXTNAMES
290
     1
  9
$PSVPSCALE
 40
0.0
  0
ENDSEC
  0
SECTION
  2
CLASSES
  0
CLASS
  1
LWPOLYLINE
  2
AcDbPolyline
  3
AutoCAD 2000
 90
    32768
280
     0
281
     1
  0
CLASS
  1
IMAGE
  2
AcDbRasterImage
  3
ISM
 90
    32895
280
     0
281
     1
  0
CLASS
  1
OLE2FRAME
  2
AcDbOle2Frame
  3
AutoCAD 2000
 90
    32768
280
     0
281
     1
  0
CLASS
  1
HATCH
  2
AcDbHatch
  3
AutoCAD 2000
 90
        0
280
     0
281
     1
  0
CLASS
  1
DICTIONARYVAR
  2
AcDbDictionaryVar
  3
AutoCAD 2000
 90
    32768
280
     0
281
     0
  0
CLASS
  1
RASTERVARIABLES
  2
AcDbRasterVariables
  3
ISM
 90
    32768
280
     0
281
     0
  0
CLASS
  1
IMAGEDEF
  2
AcDbRasterImageDef
  3
ISM
 90
    32768
280
     0
281
     0
  0
CLASS
  1
IMAGEDEF_REACTOR
  2
AcDbRasterImageDefReactor
  3
ISM
 90
    32769
280
     0
281
     0
  0
CLASS
  1
IDBUFFER
  2
AcDbIdBuffer
  3
AutoCAD 2000
 90
    32768
280
     0
281
     0
  0
CLASS
  1
SPATIAL_FILTER
  2
AcDbSpatialFilter
  3
AutoCAD 2000
 90
    32768
280
     0
281
     0
  0
CLASS
  1
XRECORD
  2
AcDbXrecord
  3
AutoCAD 2000
 90
    32768
280
     0
281
     0
  0
CLASS
  1
SORTENTSTABLE
  2
AcDbSortentsTable
  3
AutoCAD 2000
 90
    32768
280
     0
281
     0
  0
CLASS
  1
LAYER_INDEX
  2
AcDbLayerIndex
  3
AutoCAD 2000
 90
    32768
280
     0
281
     0
  0
CLASS
  1
SPATIAL_INDEX
  2
AcDbSpatialIndex
  3
AutoCAD 2000
 90
    32768
280
     0
281
     0
  0
CLASS
  1
OBJECT_PTR
  2
CAseDLPNTableRecord
  3
"ASE-LPNTableRecord"
 90
    32769
280
     0
281
     0
  0
CLASS
  1
LAYOUT
  2
AcDbLayout
  3
AutoCAD 2000
 90
        0
280
     0
281
     0
  0
CLASS
  1
PLOTSETTINGS
  2
AcDbPlotSettings
  3
AutoCAD 2000
 90
    32768
280
     0
281
     0
  0
CLASS
  1
ACDBDICTIONARYWDFLT
  2
AcDbDictionaryWithDefault
  3
AutoCAD 2000
 90
        0
280
     0
281
     0
  0
CLASS
  1
ACDBPLACEHOLDER
  2
AcDbPlaceHolder
  3
AutoCAD 2000
 90
        0
280
     0
281
     0
  0
CLASS
  1
VBA_PROJECT
  2
AcDbVbaProject
  3
acadvba
 90
    32768
280
     0
281
     0
  0
CLASS
  1
WIPEOUT
  2
AcDbWipeout
  3
WipeOut|AutoCAD Express Tool|expresstools@autodesk.com
 90
    32895
280
     0
281
     1
  0
CLASS
  1
WIPEOUTVARIABLES
  2
AcDbWipeoutVariables
  3
WipeOut|AutoCAD Express Tool|expresstools@autodesk.com
 90
        0
280
     0
281
     0
  0
CLASS
  1
RTEXT
  2
RText
  3
RText|AutoCAD Express Tool|expresstools@autodesk.com
 90
    32768
280
     0
281
     1
  0
CLASS
  1
ARCALIGNEDTEXT
  2
AcDbArcAlignedText
  3
ATEXT|AutoCAD Express Tool|expresstools@autodesk.com
 90
    32768
280
     0
281
     1
  0
ENDSEC
  0
SECTION
  2
TABLES
  0
TABLE
  2
VPORT
  5
7
100
AcDbSymbolTable
 70
     1
  0
VPORT
  5
15
100
AcDbSymbolTableRecord
100
AcDbViewportTableRecord
  2
*ACTIVE
 70
     0
 10
0.0
 20
0.0
 11
1.0
 21
1.0
 12
6.591288
 22
4.579184
 13
0.0
 23
0.0
 14
1.0
 24
1.0
 15
0.0
 25
0.0
 16
0.0
 26
0.0
 36
1.0
 17
0.0
 27
0.0
 37
0.0
 40
9.158369
 41
0.688564
 42
50.0
 43
0.0
 44
0.0
 50
0.0
 51
0.0
 71
     0
 72
   100
 73
     1
 74
     1
 75
     0
 76
     0
 77
     0
 78
     0
281
     0
 65
     0
110
0.0
120
0.0
130
0.0
111
1.0
121
0.0
131
0.0
112
0.0
122
1.0
132
0.0
345
0
346
0
 79
     0
146
0.0
  0
ENDTAB
  0
TABLE
  2
LTYPE
  5
4
100
AcDbSymbolTable
 70
     3
  0
LTYPE
  5
11
100
AcDbSymbolTableRecord
100
AcDbLinetypeTableRecord
  2
ByBlock
 70
    64
  3

 72
    65
 73
     0
 40
0.0
  0
LTYPE
  5
12
100
AcDbSymbolTableRecord
100
AcDbLinetypeTableRecord
  2
ByLayer
 70
    64
  3

 72
    65
 73
     0
 40
0.0
  0
LTYPE
  5
13
100
AcDbSymbolTableRecord
100
AcDbLinetypeTableRecord
  2
Continuous
 70
    64
  3
Solid line
 72
    65
 73
     0
 40
0.0
  0
ENDTAB
  0
TABLE
  2
LAYER
  5
2
100
AcDbSymbolTable
 70
     2
  0
LAYER
  5
14
100
AcDbSymbolTableRecord
100
AcDbLayerTableRecord
  2
0
 70
     0
 62
     7
  6
Continuous
290
     1
370
    -3
390
1D
  0
LAYER
  5
28
100
AcDbSymbolTableRecord
100
AcDbLayerTableRecord
  2
EBENE_1
 70
     0
 62
   160
  6
Continuous
290
     1
370
    -3
390
1D
  0
ENDTAB
  0
TABLE
  2
STYLE
  5
3
100
AcDbSymbolTable
 70
     5
  0
STYLE
  5
17
100
AcDbSymbolTableRecord
100
AcDbTextStyleTableRecord
  2
Standard
 70
     0
 40
0.0
 41
1.0
 50
0.0
 71
     0
 42
0.0
  3
txt
  4

  0
STYLE
  5
24
100
AcDbSymbolTableRecord
100
AcDbTextStyleTableRecord
  2
STD
 70
     0
 40
0.0
 41
1.0
 50
0.0
 71
     0
 42
0.0
  3
txt
  4

  0
STYLE
  5
25
100
AcDbSymbolTableRecord
100
AcDbTextStyleTableRecord
  2
TATESTD
 70
     4
 40
0.0
 41
1.0
 50
0.0
 71
     0
 42
0.0
  3
txt
  4

  0
STYLE
  5
26
100
AcDbSymbolTableRecord
100
AcDbTextStyleTableRecord
  2
KANJISTD
 70
     0
 40
0.0
 41
1.0
 50
0.0
 71
     0
 42
0.0
  3
txt
  4
extfont
  0
STYLE
  5
27
100
AcDbSymbolTableRecord
100
AcDbTextStyleTableRecord
  2
KANJITATE
 70
     4
 40
0.0
 41
1.0
 50
0.0
 71
     0
 42
0.0
  3
txt
  4
extfont
  0
ENDTAB
  0
TABLE
  2
VIEW
  5
5
100
AcDbSymbolTable
 70
     0
  0
ENDTAB
  0
TABLE
  2
UCS
  5
6
100
AcDbSymbolTable
 70
     0
  0
ENDTAB
  0
TABLE
  2
APPID
  5
8
100
AcDbSymbolTable
 70
     1
  0
APPID
  5
16
100
AcDbSymbolTableRecord
100
AcDbRegAppTableRecord
  2
ACAD
 70
     0
  0
ENDTAB
  0
TABLE
  2
DIMSTYLE
  5
9
100
AcDbSymbolTable
 70
     1
100
AcDbDimStyleTable
 71
     0
  0
DIMSTYLE
105
18
100
AcDbSymbolTableRecord
100
AcDbDimStyleTableRecord
  2
Standard
 70
     0
  3

  4

 40
1.0
 41
0.18
 42
0.0625
 43
0.38
 44
0.18
 45
0.0
 46
0.0
 47
0.0
 48
0.0
 71
     0
 72
     0
 73
     1
 74
     1
 75
     0
 76
     0
 77
     0
 78
     0
 79
     0
140
0.18
141
0.09
142
0.0
143
25.4
144
1.0
145
0.0
146
1.0
147
0.09
148
0.0
170
     0
171
     2
172
     0
173
     0
174
     0
175
     0
176
     0
177
     0
178
     0
179
     0
271
     4
272
     4
273
     2
274
     2
275
     0
276
     0
277
     2
278
    46
279
     0
280
     0
281
     0
282
     0
283
     1
284
     0
285
     0
286
     0
288
     0
340
17
341
0
342
0
343
0
344
0
371
    -2
372
    -2
  0
ENDTAB
  0
TABLE
  2
BLOCK_RECORD
  5
1
100
AcDbSymbolTable
 70
     1
  0
BLOCK_RECORD
  5
A
100
AcDbSymbolTableRecord
100
AcDbBlockTableRecord
  2
*MODEL_SPACE
340
20
  0
BLOCK_RECORD
  5
B
100
AcDbSymbolTableRecord
100
AcDbBlockTableRecord
  2
*PAPER_SPACE
340
21
  0
BLOCK_RECORD
  5
29
100
AcDbSymbolTableRecord
100
AcDbBlockTableRecord
  2
AI9-BLK1
340
0
102
{BLKREFS
331
2A
102
}
  0
ENDTAB
  0
ENDSEC
  0
SECTION
  2
BLOCKS
  0
BLOCK
  5
D
100
AcDbEntity
  8
0
100
AcDbBlockBegin
  2
*MODEL_SPACE
 70
     0
 10
0.0
 20
0.0
 30
0.0
  3
*MODEL_SPACE
  1

  0
ENDBLK
  5
E
100
AcDbEntity
  8
0
100
AcDbBlockEnd
  0
BLOCK
  5
F
100
AcDbEntity
 67
     1
  8
0
100
AcDbBlockBegin
  2
*PAPER_SPACE
 70
     0
 10
0.0
 20
0.0
 30
0.0
  3
*PAPER_SPACE
  1

  0
ENDBLK
  5
10
100
AcDbEntity
 67
     1
  8
0
100
AcDbBlockEnd
  0
BLOCK
  5
2B
100
AcDbEntity
  8
EBENE_1
 62
     7
100
AcDbBlockBegin
  2
AI9-BLK1
 70
     0
 10
0.0
 20
0.0
 30
0.0
  3
AI9-BLK1
  1

  0
LINE
  5
5B4
100
AcDbEntity
  8
EBENE_1
 62
     7
100
AcDbLine
 10
59.135753
 20
77.304842
 30
0.0
 11
73.444613
 21
77.304842
 31
0.0
  0
LINE
  5
5B3
100
AcDbEntity
  8
EBENE_1
 62
     7
100
AcDbLine
 10
59.135753
 20
-78.651185
 30
0.0
 11
73.444613
 21
-78.651185
 31
0.0
  0
LINE
  5
5B2
100
AcDbEntity
  8
EBENE_1
 62
     7
100
AcDbLine
 10
72.767307
 20
72.05555
 30
0.0
 11
72.767307
 21
-73.401893
 31
0.0
  0
POLYLINE
  5
5AD
100
AcDbEntity
  8
EBENE_1
 62
     7
100
AcDb2dPolyline
 66
     1
 10
0.0
 20
0.0
 30
0.0
 70
     1
  0
VERTEX
  5
5AE
100
AcDbEntity
  8
EBENE_1
 62
     7
100
AcDbVertex
100
AcDb2dVertex
 10
71.835753
 20
72.05555
 30
0.0
  0
VERTEX
  5
5AF
100
AcDbEntity
  8
EBENE_1
 62
     7
100
AcDbVertex
100
AcDb2dVertex
 10
73.614111
 20
72.05555
 30
0.0
  0
VERTEX
  5
5B0
100
AcDbEntity
  8
EBENE_1
 62
     7
100
AcDbVertex
100
AcDb2dVertex
 10
72.767307
 20
77.304842
 30
0.0
  0
SEQEND
  5
5B1
100
AcDbEntity
  8
EBENE_1
 62
     7
  0
HATCH
  5
5AC
100
AcDbEntity
  8
EBENE_1
 62
     7
100
AcDbHatch
 10
0.0
 20
0.0
 30
0.0
210
0.0
220
0.0
230
1.0
  2
SOLID
 70
     1
 71
     0
 91
        1
 92
        3
 72
     0
 73
     1
 93
        3
 10
71.83575303819444
 20
72.055550130208331
 10
73.614111328124991
 20
72.055550130208331
 10
72.767306857638886
 20
77.304842122395826
 97
        0
 75
     0
 76
     1
 98
        1
 10
0.0
 20
0.0
  0
POLYLINE
  5
5A7
100
AcDbEntity
  8
EBENE_1
 62
     7
100
AcDb2dPolyline
 66
     1
 10
0.0
 20
0.0
 30
0.0
 70
     1
  0
VERTEX
  5
5A8
100
AcDbEntity
  8
EBENE_1
 62
     7
100
AcDbVertex
100
AcDb2dVertex
 10
71.835753
 20
-73.401893
 30
0.0
  0
VERTEX
  5
5A9
100
AcDbEntity
  8
EBENE_1
 62
     7
100
AcDbVertex
100
AcDb2dVertex
 10
73.614111
 20
-73.401893
 30
0.0
  0
VERTEX
  5
5AA
100
AcDbEntity
  8
EBENE_1
 62
     7
100
AcDbVertex
100
AcDb2dVertex
 10
72.767307
 20
-78.651185
 30
0.0
  0
SEQEND
  5
5AB
100
AcDbEntity
  8
EBENE_1
 62
     7
  0
HATCH
  5
5A6
100
AcDbEntity
  8
EBENE_1
 62
     7
100
AcDbHatch
 10
0.0
 20
0.0
 30
0.0
210
0.0
220
0.0
230
1.0
  2
SOLID
 70
     1
 71
     0
 91
        1
 92
        3
 72
     0
 73
     1
 93
        3
 10
71.83575303819444
 20
-73.401893446180551
 10
73.614111328124991
 20
-73.401893446180551
 10
72.767306857638886
 20
-78.651185438368046
 97
        0
 75
     0
 76
     1
 98
        1
 10
0.0
 20
0.0
  0
LINE
  5
5A5
100
AcDbEntity
  8
EBENE_1
 62
     7
100
AcDbLine
 10
67.009863
 20
-6.769268
 30
0.0
 11
66.756304
 21
-6.261117
 31
0.0
  0
LINE
  5
5A4
100
AcDbEntity
  8
EBENE_1
 62
     7
100
AcDbLine
 10
66.756304
 20
-6.261117
 30
0.0
 11
65.994249
 21
-5.499061
 31
0.0
  0
LINE
  5
5A3
100
AcDbEntity
  8
EBENE_1
 62
     7
100
AcDbLine
 10
65.994249
 20
-5.499061
 30
0.0
 11
71.243197
 21
-5.499061
 31
0.0
  0
LINE
  5
5A2
100
AcDbEntity
  8
EBENE_1
 62
     7
100
AcDbLine
 10
65.994249
 20
0.258038
 30
0.0
 11
65.994249
 21
-2.281687
 31
0.0
  0
LINE
  5
5A1
100
AcDbEntity
  8
EBENE_1
 62
     7
100
AcDbLine
 10
65.994249
 20
-2.281687
 30
0.0
 11
68.195665
 21
-2.535935
 31
0.0
  0
LINE
  5
5A0
100
AcDbEntity
  8
EBENE_1
 62
     7
100
AcDbLine
 10
68.195665
 20
-2.535935
 30
0.0
 11
67.941417
 21
-2.281687
 31
0.0
  0
LINE
  5
59F
100
AcDbEntity
  8
EBENE_1
 62
     7
100
AcDbLine
 10
67.941417
 20
-2.281687
 30
0.0
 11
67.771918
 21
-1.519976
 31
0.0
  0
LINE
  5
59E
100
AcDbEntity
  8
EBENE_1
 62
     7
100
AcDbLine
 10
67.771918
 20
-1.519976
 30
0.0
 11
67.771918
 21
-0.757921
 31
0.0
  0
LINE
  5
59D
100
AcDbEntity
  8
EBENE_1
 62
     7
100
AcDbLine
 10
67.771918
 20
-0.757921
 30
0.0
 11
67.941417
 21
0.004134
 31
0.0
  0
LINE
  5
59C
100
AcDbEntity
  8
EBENE_1
 62
     7
100
AcDbLine
 10
67.941417
 20
0.004134
 30
0.0
 11
68.449224
 21
0.512286
 31
0.0
  0
LINE
  5
59B
100
AcDbEntity
  8
EBENE_1
 62
     7
100
AcDbLine
 10
68.449224
 20
0.512286
 30
0.0
 11
69.211279
 21
0.766189
 31
0.0
  0
LINE
  5
59A
100
AcDbEntity
  8
EBENE_1
 62
     7
100
AcDbLine
 10
69.211279
 20
0.766189
 30
0.0
 11
69.719086
 21
0.766189
 31
0.0
  0
LINE
  5
599
100
AcDbEntity
  8
EBENE_1
 62
     7
100
AcDbLine
 10
69.719086
 20
0.766189
 30
0.0
 11
70.481141
 21
0.512286
 31
0.0
  0
LINE
  5
598
100
AcDbEntity
  8
EBENE_1
 62
     7
100
AcDbLine
 10
70.481141
 20
0.512286
 30
0.0
 11
70.989638
 21
0.004134
 31
0.0
  0
LINE
  5
597
100
AcDbEntity
  8
EBENE_1
 62
     7
100
AcDbLine
 10
70.989638
 20
0.004134
 30
0.0
 11
71.243197
 21
-0.757921
 31
0.0
  0
LINE
  5
596
100
AcDbEntity
  8
EBENE_1
 62
     7
100
AcDbLine
 10
71.243197
 20
-0.757921
 30
0.0
 11
71.243197
 21
-1.519976
 31
0.0
  0
LINE
  5
595
100
AcDbEntity
  8
EBENE_1
 62
     7
100
AcDbLine
 10
71.243197
 20
-1.519976
 30
0.0
 11
70.989638
 21
-2.281687
 31
0.0
  0
LINE
  5
594
100
AcDbEntity
  8
EBENE_1
 62
     7
100
AcDbLine
 10
70.989638
 20
-2.281687
 30
0.0
 11
70.73539
 21
-2.535935
 31
0.0
  0
LINE
  5
593
100
AcDbEntity
  8
EBENE_1
 62
     7
100
AcDbLine
 10
70.73539
 20
-2.535935
 30
0.0
 11
70.227582
 21
-2.789838
 31
0.0
  0
LINE
  5
592
100
AcDbEntity
  8
EBENE_1
 62
     7
100
AcDbLine
 10
70.227582
 20
-2.789838
 30
0.0
 11
70.227582
 21
-2.789838
 31
0.0
  0
LINE
  5
591
100
AcDbEntity
  8
EBENE_1
 62
     7
100
AcDbLine
 10
66.756304
 20
5.253426
 30
0.0
 11
66.247808
 21
4.999523
 31
0.0
  0
LINE
  5
590
100
AcDbEntity
  8
EBENE_1
 62
     7
100
AcDbLine
 10
66.247808
 20
4.999523
 30
0.0
 11
65.994249
 21
4.237467
 31
0.0
  0
LINE
  5
58F
100
AcDbEntity
  8
EBENE_1
 62
     7
100
AcDbLine
 10
65.994249
 20
4.237467
 30
0.0
 11
65.994249
 21
3.729316
 31
0.0
  0
LINE
  5
58E
100
AcDbEntity
  8
EBENE_1
 62
     7
100
AcDbLine
 10
65.994249
 20
3.729316
 30
0.0
 11
66.247808
 21
2.967605
 31
0.0
  0
LINE
  5
58D
100
AcDbEntity
  8
EBENE_1
 62
     7
100
AcDbLine
 10
66.247808
 20
2.967605
 30
0.0
 11
67.009863
 21
2.459454
 31
0.0
  0
LINE
  5
58C
100
AcDbEntity
  8
EBENE_1
 62
     7
100
AcDbLine
 10
67.009863
 20
2.459454
 30
0.0
 11
68.195665
 21
2.20555
 31
0.0
  0
LINE
  5
58B
100
AcDbEntity
  8
EBENE_1
 62
     7
100
AcDbLine
 10
68.195665
 20
2.20555
 30
0.0
 11
69.465527
 21
2.20555
 31
0.0
  0
LINE
  5
58A
100
AcDbEntity
  8
EBENE_1
 62
     7
100
AcDbLine
 10
69.465527
 20
2.20555
 30
0.0
 11
70.481141
 21
2.459454
 31
0.0
  0
LINE
  5
589
100
AcDbEntity
  8
EBENE_1
 62
     7
100
AcDbLine
 10
70.481141
 20
2.459454
 30
0.0
 11
70.989638
 21
2.967605
 31
0.0
  0
LINE
  5
588
100
AcDbEntity
  8
EBENE_1
 62
     7
100
AcDbLine
 10
70.989638
 20
2.967605
 30
0.0
 11
71.243197
 21
3.729316
 31
0.0
  0
LINE
  5
587
100
AcDbEntity
  8
EBENE_1
 62
     7
100
AcDbLine
 10
71.243197
 20
3.729316
 30
0.0
 11
71.243197
 21
3.983564
 31
0.0
  0
LINE
  5
586
100
AcDbEntity
  8
EBENE_1
 62
     7
100
AcDbLine
 10
71.243197
 20
3.983564
 30
0.0
 11
70.989638
 21
4.745619
 31
0.0
  0
LINE
  5
585
100
AcDbEntity
  8
EBENE_1
 62
     7
100
AcDbLine
 10
70.989638
 20
4.745619
 30
0.0
 11
70.481141
 21
5.253426
 31
0.0
  0
LINE
  5
584
100
AcDbEntity
  8
EBENE_1
 62
     7
100
AcDbLine
 10
70.481141
 20
5.253426
 30
0.0
 11
69.719086
 21
5.50733
 31
0.0
  0
LINE
  5
583
100
AcDbEntity
  8
EBENE_1
 62
     7
100
AcDbLine
 10
69.719086
 20
5.50733
 30
0.0
 11
69.465527
 21
5.50733
 31
0.0
  0
LINE
  5
582
100
AcDbEntity
  8
EBENE_1
 62
     7
100
AcDbLine
 10
69.465527
 20
5.50733
 30
0.0
 11
68.703472
 21
5.253426
 31
0.0
  0
LINE
  5
581
100
AcDbEntity
  8
EBENE_1
 62
     7
100
AcDbLine
 10
68.703472
 20
5.253426
 30
0.0
 11
68.195665
 21
4.745619
 31
0.0
  0
LINE
  5
580
100
AcDbEntity
  8
EBENE_1
 62
     7
100
AcDbLine
 10
68.195665
 20
4.745619
 30
0.0
 11
67.941417
 21
3.983564
 31
0.0
  0
LINE
  5
57F
100
AcDbEntity
  8
EBENE_1
 62
     7
100
AcDbLine
 10
67.941417
 20
3.983564
 30
0.0
 11
67.941417
 21
3.729316
 31
0.0
  0
LINE
  5
57E
100
AcDbEntity
  8
EBENE_1
 62
     7
100
AcDbLine
 10
67.941417
 20
3.729316
 30
0.0
 11
68.195665
 21
2.967605
 31
0.0
  0
LINE
  5
57D
100
AcDbEntity
  8
EBENE_1
 62
     7
100
AcDbLine
 10
68.195665
 20
2.967605
 30
0.0
 11
68.703472
 21
2.459454
 31
0.0
  0
LINE
  5
57C
100
AcDbEntity
  8
EBENE_1
 62
     7
100
AcDbLine
 10
68.703472
 20
2.459454
 30
0.0
 11
69.465527
 21
2.20555
 31
0.0
  0
LINE
  5
57B
100
AcDbEntity
  8
EBENE_1
 62
     7
100
AcDbLine
 10
69.465527
 20
2.20555
 30
0.0
 11
69.465527
 21
2.20555
 31
0.0
  0
LINE
  5
57A
100
AcDbEntity
  8
EBENE_1
 62
     7
100
AcDbLine
 10
54.056304
 20
-43.176004
 30
0.0
 11
54.056304
 21
-34.793742
 31
0.0
  0
LINE
  5
579
100
AcDbEntity
  8
EBENE_1
 62
     7
100
AcDbLine
 10
50.07653
 20
-43.176004
 30
0.0
 11
50.07653
 21
-34.793742
 31
0.0
  0
LINE
  5
578
100
AcDbEntity
  8
EBENE_1
 62
     7
100
AcDbLine
 10
59.305252
 20
-35.555797
 30
0.0
 11
64.554888
 21
-35.555797
 31
0.0
  0
LINE
  5
577
100
AcDbEntity
  8
EBENE_1
 62
     7
100
AcDbLine
 10
44.827582
 20
-35.555797
 30
0.0
 11
39.577946
 21
-35.555797
 31
0.0
  0
LINE
  5
576
100
AcDbEntity
  8
EBENE_1
 62
     7
100
AcDbLine
 10
54.056304
 20
-35.555797
 30
0.0
 11
50.07653
 21
-35.555797
 31
0.0
  0
POLYLINE
  5
571
100
AcDbEntity
  8
EBENE_1
 62
     7
100
AcDb2dPolyline
 66
     1
 10
0.0
 20
0.0
 30
0.0
 70
     1
  0
VERTEX
  5
572
100
AcDbEntity
  8
EBENE_1
 62
     7
100
AcDbVertex
100
AcDb2dVertex
 10
59.305252
 20
-34.709337
 30
0.0
  0
VERTEX
  5
573
100
AcDbEntity
  8
EBENE_1
 62
     7
100
AcDbVertex
100
AcDb2dVertex
 10
59.305252
 20
-36.487351
 30
0.0
  0
VERTEX
  5
574
100
AcDbEntity
  8
EBENE_1
 62
     7
100
AcDbVertex
100
AcDb2dVertex
 10
54.056304
 20
-35.555797
 30
0.0
  0
SEQEND
  5
575
100
AcDbEntity
  8
EBENE_1
 62
     7
  0
HATCH
  5
570
100
AcDbEntity
  8
EBENE_1
 62
     7
100
AcDbHatch
 10
0.0
 20
0.0
 30
0.0
210
0.0
220
0.0
230
1.0
  2
SOLID
 70
     1
 71
     0
 91
        1
 92
        3
 72
     0
 73
     1
 93
        3
 10
59.305251736111103
 20
-34.709337022569443
 10
59.305251736111103
 20
-36.487350802951383
 10
54.05630425347222
 20
-35.555796983506944
 97
        0
 75
     0
 76
     1
 98
        1
 10
0.0
 20
0.0
  0
POLYLINE
  5
56B
100
AcDbEntity
  8
EBENE_1
 62
     7
100
AcDb2dPolyline
 66
     1
 10
0.0
 20
0.0
 30
0.0
 70
     1
  0
VERTEX
  5
56C
100
AcDbEntity
  8
EBENE_1
 62
     7
100
AcDbVertex
100
AcDb2dVertex
 10
44.827582
 20
-34.709337
 30
0.0
  0
VERTEX
  5
56D
100
AcDbEntity
  8
EBENE_1
 62
     7
100
AcDbVertex
100
AcDb2dVertex
 10
44.827582
 20
-36.487351
 30
0.0
  0
VERTEX
  5
56E
100
AcDbEntity
  8
EBENE_1
 62
     7
100
AcDbVertex
100
AcDb2dVertex
 10
50.07653
 20
-35.555797
 30
0.0
  0
SEQEND
  5
56F
100
AcDbEntity
  8
EBENE_1
 62
     7
  0
HATCH
  5
56A
100
AcDbEntity
  8
EBENE_1
 62
     7
100
AcDbHatch
 10
0.0
 20
0.0
 30
0.0
210
0.0
220
0.0
230
1.0
  2
SOLID
 70
     1
 71
     0
 91
        1
 92
        3
 72
     0
 73
     1
 93
        3
 10
44.827582465277771
 20
-34.709337022569443
 10
44.827582465277771
 20
-36.487350802951383
 10
50.076529947916661
 20
-35.555796983506944
 97
        0
 75
     0
 76
     1
 98
        1
 10
0.0
 20
0.0
  0
LINE
  5
569
100
AcDbEntity
  8
EBENE_1
 62
     7
100
AcDbLine
 10
49.060916
 20
-29.798353
 30
0.0
 11
48.637169
 21
-30.052601
 31
0.0
  0
LINE
  5
568
100
AcDbEntity
  8
EBENE_1
 62
     7
100
AcDbLine
 10
48.637169
 20
-30.052601
 30
0.0
 11
48.129362
 21
-30.560409
 31
0.0
  0
LINE
  5
567
100
AcDbEntity
  8
EBENE_1
 62
     7
100
AcDbLine
 10
48.129362
 20
-30.560409
 30
0.0
 11
47.875114
 21
-31.322464
 31
0.0
  0
LINE
  5
566
100
AcDbEntity
  8
EBENE_1
 62
     7
100
AcDbLine
 10
47.875114
 20
-31.322464
 30
0.0
 11
47.875114
 21
-31.830615
 31
0.0
  0
LINE
  5
565
100
AcDbEntity
  8
EBENE_1
 62
     7
100
AcDbLine
 10
47.875114
 20
-31.830615
 30
0.0
 11
48.129362
 21
-32.59267
 31
0.0
  0
LINE
  5
564
100
AcDbEntity
  8
EBENE_1
 62
     7
100
AcDbLine
 10
48.129362
 20
-32.59267
 30
0.0
 11
48.637169
 21
-33.100477
 31
0.0
  0
LINE
  5
563
100
AcDbEntity
  8
EBENE_1
 62
     7
100
AcDbLine
 10
48.637169
 20
-33.100477
 30
0.0
 11
49.060916
 21
-33.354381
 31
0.0
  0
LINE
  5
562
100
AcDbEntity
  8
EBENE_1
 62
     7
100
AcDbLine
 10
49.060916
 20
-33.354381
 30
0.0
 11
49.822971
 21
-33.354381
 31
0.0
  0
LINE
  5
561
100
AcDbEntity
  8
EBENE_1
 62
     7
100
AcDbLine
 10
49.822971
 20
-33.354381
 30
0.0
 11
50.330778
 21
-33.100477
 31
0.0
  0
LINE
  5
560
100
AcDbEntity
  8
EBENE_1
 62
     7
100
AcDbLine
 10
50.330778
 20
-33.100477
 30
0.0
 11
50.838585
 21
-32.59267
 31
0.0
  0
LINE
  5
55F
100
AcDbEntity
  8
EBENE_1
 62
     7
100
AcDbLine
 10
50.838585
 20
-32.59267
 30
0.0
 11
51.092833
 21
-31.830615
 31
0.0
  0
LINE
  5
55E
100
AcDbEntity
  8
EBENE_1
 62
     7
100
AcDbLine
 10
51.092833
 20
-31.830615
 30
0.0
 11
51.092833
 21
-31.322464
 31
0.0
  0
LINE
  5
55D
100
AcDbEntity
  8
EBENE_1
 62
     7
100
AcDbLine
 10
51.092833
 20
-31.322464
 30
0.0
 11
50.838585
 21
-30.560409
 31
0.0
  0
LINE
  5
55C
100
AcDbEntity
  8
EBENE_1
 62
     7
100
AcDbLine
 10
50.838585
 20
-30.560409
 30
0.0
 11
50.330778
 21
-30.052601
 31
0.0
  0
LINE
  5
55B
100
AcDbEntity
  8
EBENE_1
 62
     7
100
AcDbLine
 10
50.330778
 20
-30.052601
 30
0.0
 11
49.822971
 21
-29.798353
 31
0.0
  0
LINE
  5
55A
100
AcDbEntity
  8
EBENE_1
 62
     7
100
AcDbLine
 10
49.822971
 20
-29.798353
 30
0.0
 11
49.060916
 21
-29.798353
 31
0.0
  0
LINE
  5
559
100
AcDbEntity
  8
EBENE_1
 62
     7
100
AcDbLine
 10
50.585026
 20
-29.121048
 30
0.0
 11
48.38361
 21
-34.116436
 31
0.0
  0
LINE
  5
558
100
AcDbEntity
  8
EBENE_1
 62
     7
100
AcDbLine
 10
55.071918
 20
-28.867144
 30
0.0
 11
52.616943
 21
-32.338422
 31
0.0
  0
LINE
  5
557
100
AcDbEntity
  8
EBENE_1
 62
     7
100
AcDbLine
 10
52.616943
 20
-32.338422
 30
0.0
 11
56.341781
 21
-32.338422
 31
0.0
  0
LINE
  5
556
100
AcDbEntity
  8
EBENE_1
 62
     7
100
AcDbLine
 10
55.071918
 20
-28.867144
 30
0.0
 11
55.071918
 21
-34.116436
 31
0.0
  0
LINE
  5
555
100
AcDbEntity
  8
EBENE_1
 62
     7
100
AcDbLine
 10
50.585026
 20
-7.107921
 30
0.0
 11
50.585026
 21
-20.654381
 31
0.0
  0
LINE
  5
554
100
AcDbEntity
  8
EBENE_1
 62
     7
100
AcDbLine
 10
53.632558
 20
-7.107921
 30
0.0
 11
53.632558
 21
-20.654381
 31
0.0
  0
LINE
  5
553
100
AcDbEntity
  8
EBENE_1
 62
     7
100
AcDbLine
 10
45.33539
 20
-19.89267
 30
0.0
 11
40.085753
 21
-19.89267
 31
0.0
  0
LINE
  5
552
100
AcDbEntity
  8
EBENE_1
 62
     7
100
AcDbLine
 10
58.882194
 20
-19.89267
 30
0.0
 11
64.131141
 21
-19.89267
 31
0.0
  0
LINE
  5
551
100
AcDbEntity
  8
EBENE_1
 62
     7
100
AcDbLine
 10
40.5095
 20
-13.204017
 30
0.0
 11
43.303472
 21
-13.204017
 31
0.0
  0
LINE
  5
550
100
AcDbEntity
  8
EBENE_1
 62
     7
100
AcDbLine
 10
43.303472
 20
-13.204017
 30
0.0
 11
41.779362
 21
-15.151185
 31
0.0
  0
LINE
  5
54F
100
AcDbEntity
  8
EBENE_1
 62
     7
100
AcDbLine
 10
41.779362
 20
-15.151185
 30
0.0
 11
42.541417
 21
-15.151185
 31
0.0
  0
LINE
  5
54E
100
AcDbEntity
  8
EBENE_1
 62
     7
100
AcDbLine
 10
42.541417
 20
-15.151185
 30
0.0
 11
43.049224
 21
-15.405089
 31
0.0
  0
LINE
  5
54D
100
AcDbEntity
  8
EBENE_1
 62
     7
100
AcDbLine
 10
43.049224
 20
-15.405089
 30
0.0
 11
43.303472
 21
-15.659337
 31
0.0
  0
LINE
  5
54C
100
AcDbEntity
  8
EBENE_1
 62
     7
100
AcDbLine
 10
43.303472
 20
-15.659337
 30
0.0
 11
43.557031
 21
-16.421048
 31
0.0
  0
LINE
  5
54B
100
AcDbEntity
  8
EBENE_1
 62
     7
100
AcDbLine
 10
43.557031
 20
-16.421048
 30
0.0
 11
43.557031
 21
-16.929199
 31
0.0
  0
LINE
  5
54A
100
AcDbEntity
  8
EBENE_1
 62
     7
100
AcDbLine
 10
43.557031
 20
-16.929199
 30
0.0
 11
43.303472
 21
-17.691254
 31
0.0
  0
LINE
  5
549
100
AcDbEntity
  8
EBENE_1
 62
     7
100
AcDbLine
 10
43.303472
 20
-17.691254
 30
0.0
 11
42.795665
 21
-18.199061
 31
0.0
  0
LINE
  5
548
100
AcDbEntity
  8
EBENE_1
 62
     7
100
AcDbLine
 10
42.795665
 20
-18.199061
 30
0.0
 11
42.03361
 21
-18.453309
 31
0.0
  0
LINE
  5
547
100
AcDbEntity
  8
EBENE_1
 62
     7
100
AcDbLine
 10
42.03361
 20
-18.453309
 30
0.0
 11
41.271555
 21
-18.453309
 31
0.0
  0
LINE
  5
546
100
AcDbEntity
  8
EBENE_1
 62
     7
100
AcDbLine
 10
41.271555
 20
-18.453309
 30
0.0
 11
40.5095
 21
-18.199061
 31
0.0
  0
LINE
  5
545
100
AcDbEntity
  8
EBENE_1
 62
     7
100
AcDbLine
 10
40.5095
 20
-18.199061
 30
0.0
 11
40.255252
 21
-17.945158
 31
0.0
  0
LINE
  5
544
100
AcDbEntity
  8
EBENE_1
 62
     7
100
AcDbLine
 10
40.255252
 20
-17.945158
 30
0.0
 11
40.001693
 21
-17.437351
 31
0.0
  0
LINE
  5
543
100
AcDbEntity
  8
EBENE_1
 62
     7
100
AcDbLine
 10
50.585026
 20
-19.89267
 30
0.0
 11
53.632558
 21
-19.89267
 31
0.0
  0
LINE
  5
542
100
AcDbEntity
  8
EBENE_1
 62
     7
100
AcDbLine
 10
50.585026
 20
-19.89267
 30
0.0
 11
53.632558
 21
-19.89267
 31
0.0
  0
POLYLINE
  5
53D
100
AcDbEntity
  8
EBENE_1
 62
     7
100
AcDb2dPolyline
 66
     1
 10
0.0
 20
0.0
 30
0.0
 70
     1
  0
VERTEX
  5
53E
100
AcDbEntity
  8
EBENE_1
 62
     7
100
AcDbVertex
100
AcDb2dVertex
 10
45.33539
 20
-19.045866
 30
0.0
  0
VERTEX
  5
53F
100
AcDbEntity
  8
EBENE_1
 62
     7
100
AcDbVertex
100
AcDb2dVertex
 10
45.33539
 20
-20.82388
 30
0.0
  0
VERTEX
  5
540
100
AcDbEntity
  8
EBENE_1
 62
     7
100
AcDbVertex
100
AcDb2dVertex
 10
50.585026
 20
-19.89267
 30
0.0
  0
SEQEND
  5
541
100
AcDbEntity
  8
EBENE_1
 62
     7
  0
HATCH
  5
53C
100
AcDbEntity
  8
EBENE_1
 62
     7
100
AcDbHatch
 10
0.0
 20
0.0
 30
0.0
210
0.0
220
0.0
230
1.0
  2
SOLID
 70
     1
 71
     0
 91
        1
 92
        3
 72
     0
 73
     1
 93
        3
 10
45.335389539930553
 20
-19.045865885416664
 10
45.335389539930553
 20
-20.823879665798611
 10
50.585026041666659
 20
-19.892670355902776
 97
        0
 75
     0
 76
     1
 98
        1
 10
0.0
 20
0.0
  0
POLYLINE
  5
537
100
AcDbEntity
  8
EBENE_1
 62
     7
100
AcDb2dPolyline
 66
     1
 10
0.0
 20
0.0
 30
0.0
 70
     1
  0
VERTEX
  5
538
100
AcDbEntity
  8
EBENE_1
 62
     7
100
AcDbVertex
100
AcDb2dVertex
 10
58.882194
 20
-19.045866
 30
0.0
  0
VERTEX
  5
539
100
AcDbEntity
  8
EBENE_1
 62
     7
100
AcDbVertex
100
AcDb2dVertex
 10
58.882194
 20
-20.82388
 30
0.0
  0
VERTEX
  5
53A
100
AcDbEntity
  8
EBENE_1
 62
     7
100
AcDbVertex
100
AcDb2dVertex
 10
53.632558
 20
-19.89267
 30
0.0
  0
SEQEND
  5
53B
100
AcDbEntity
  8
EBENE_1
 62
     7
  0
HATCH
  5
536
100
AcDbEntity
  8
EBENE_1
 62
     7
100
AcDbHatch
 10
0.0
 20
0.0
 30
0.0
210
0.0
220
0.0
230
1.0
  2
SOLID
 70
     1
 71
     0
 91
        1
 92
        3
 72
     0
 73
     1
 93
        3
 10
58.882194010416661
 20
-19.045865885416664
 10
58.882194010416661
 20
-20.823879665798611
 10
53.632557508680549
 20
-19.892670355902776
 97
        0
 75
     0
 76
     1
 98
        1
 10
0.0
 20
0.0
  0
LINE
  5
535
100
AcDbEntity
  8
EBENE_1
 62
     7
100
AcDbLine
 10
55.326166
 20
38.866189
 30
0.0
 11
55.326166
 21
48.179488
 31
0.0
  0
LINE
  5
534
100
AcDbEntity
  8
EBENE_1
 62
     7
100
AcDbLine
 10
48.806668
 20
38.866189
 30
0.0
 11
48.806668
 21
48.179488
 31
0.0
  0
LINE
  5
533
100
AcDbEntity
  8
EBENE_1
 62
     7
100
AcDbLine
 10
60.575114
 20
47.417433
 30
0.0
 11
65.82475
 21
47.417433
 31
0.0
  0
LINE
  5
532
100
AcDbEntity
  8
EBENE_1
 62
     7
100
AcDbLine
 10
43.557031
 20
47.417433
 30
0.0
 11
38.308084
 21
47.417433
 31
0.0
  0
LINE
  5
531
100
AcDbEntity
  8
EBENE_1
 62
     7
100
AcDbLine
 10
38.562332
 20
53.174877
 30
0.0
 11
38.053836
 21
52.920801
 31
0.0
  0
LINE
  5
530
100
AcDbEntity
  8
EBENE_1
 62
     7
100
AcDbLine
 10
38.053836
 20
52.920801
 30
0.0
 11
37.546029
 21
52.412821
 31
0.0
  0
LINE
  5
52F
100
AcDbEntity
  8
EBENE_1
 62
     7
100
AcDbLine
 10
37.546029
 20
52.412821
 30
0.0
 11
37.291781
 21
51.650766
 31
0.0
  0
LINE
  5
52E
100
AcDbEntity
  8
EBENE_1
 62
     7
100
AcDbLine
 10
37.291781
 20
51.650766
 30
0.0
 11
37.291781
 21
51.142787
 31
0.0
  0
LINE
  5
52D
100
AcDbEntity
  8
EBENE_1
 62
     7
100
AcDbLine
 10
37.291781
 20
51.142787
 30
0.0
 11
37.546029
 21
50.380732
 31
0.0
  0
LINE
  5
52C
100
AcDbEntity
  8
EBENE_1
 62
     7
100
AcDbLine
 10
37.546029
 20
50.380732
 30
0.0
 11
38.053836
 21
49.872753
 31
0.0
  0
LINE
  5
52B
100
AcDbEntity
  8
EBENE_1
 62
     7
100
AcDbLine
 10
38.053836
 20
49.872753
 30
0.0
 11
38.562332
 21
49.618849
 31
0.0
  0
LINE
  5
52A
100
AcDbEntity
  8
EBENE_1
 62
     7
100
AcDbLine
 10
38.562332
 20
49.618849
 30
0.0
 11
39.323698
 21
49.618849
 31
0.0
  0
LINE
  5
529
100
AcDbEntity
  8
EBENE_1
 62
     7
100
AcDbLine
 10
39.323698
 20
49.618849
 30
0.0
 11
39.832194
 21
49.872753
 31
0.0
  0
LINE
  5
528
100
AcDbEntity
  8
EBENE_1
 62
     7
100
AcDbLine
 10
39.832194
 20
49.872753
 30
0.0
 11
40.340001
 21
50.380732
 31
0.0
  0
LINE
  5
527
100
AcDbEntity
  8
EBENE_1
 62
     7
100
AcDbLine
 10
40.340001
 20
50.380732
 30
0.0
 11
40.594249
 21
51.142787
 31
0.0
  0
LINE
  5
526
100
AcDbEntity
  8
EBENE_1
 62
     7
100
AcDbLine
 10
40.594249
 20
51.142787
 30
0.0
 11
40.594249
 21
51.650766
 31
0.0
  0
LINE
  5
525
100
AcDbEntity
  8
EBENE_1
 62
     7
100
AcDbLine
 10
40.594249
 20
51.650766
 30
0.0
 11
40.340001
 21
52.412821
 31
0.0
  0
LINE
  5
524
100
AcDbEntity
  8
EBENE_1
 62
     7
100
AcDbLine
 10
40.340001
 20
52.412821
 30
0.0
 11
39.832194
 21
52.920801
 31
0.0
  0
LINE
  5
523
100
AcDbEntity
  8
EBENE_1
 62
     7
100
AcDbLine
 10
39.832194
 20
52.920801
 30
0.0
 11
39.323698
 21
53.174877
 31
0.0
  0
LINE
  5
522
100
AcDbEntity
  8
EBENE_1
 62
     7
100
AcDbLine
 10
39.323698
 20
53.174877
 30
0.0
 11
38.562332
 21
53.174877
 31
0.0
  0
LINE
  5
521
100
AcDbEntity
  8
EBENE_1
 62
     7
100
AcDbLine
 10
40.085753
 20
53.936759
 30
0.0
 11
37.800277
 21
48.941543
 31
0.0
  0
LINE
  5
520
100
AcDbEntity
  8
EBENE_1
 62
     7
100
AcDbLine
 10
45.081141
 20
53.42878
 30
0.0
 11
44.827582
 21
53.936759
 31
0.0
  0
LINE
  5
51F
100
AcDbEntity
  8
EBENE_1
 62
     7
100
AcDbLine
 10
44.827582
 20
53.936759
 30
0.0
 11
44.065527
 21
54.190835
 31
0.0
  0
LINE
  5
51E
100
AcDbEntity
  8
EBENE_1
 62
     7
100
AcDbLine
 10
44.065527
 20
54.190835
 30
0.0
 11
43.557031
 21
54.190835
 31
0.0
  0
LINE
  5
51D
100
AcDbEntity
  8
EBENE_1
 62
     7
100
AcDbLine
 10
43.557031
 20
54.190835
 30
0.0
 11
42.795665
 21
53.936759
 31
0.0
  0
LINE
  5
51C
100
AcDbEntity
  8
EBENE_1
 62
     7
100
AcDbLine
 10
42.795665
 20
53.936759
 30
0.0
 11
42.287169
 21
53.174877
 31
0.0
  0
LINE
  5
51B
100
AcDbEntity
  8
EBENE_1
 62
     7
100
AcDbLine
 10
42.287169
 20
53.174877
 30
0.0
 11
42.03361
 21
51.904842
 31
0.0
  0
LINE
  5
51A
100
AcDbEntity
  8
EBENE_1
 62
     7
100
AcDbLine
 10
42.03361
 20
51.904842
 30
0.0
 11
42.03361
 21
50.634808
 31
0.0
  0
LINE
  5
519
100
AcDbEntity
  8
EBENE_1
 62
     7
100
AcDbLine
 10
42.03361
 20
50.634808
 30
0.0
 11
42.287169
 21
49.618849
 31
0.0
  0
LINE
  5
518
100
AcDbEntity
  8
EBENE_1
 62
     7
100
AcDbLine
 10
42.287169
 20
49.618849
 30
0.0
 11
42.795665
 21
49.195447
 31
0.0
  0
LINE
  5
517
100
AcDbEntity
  8
EBENE_1
 62
     7
100
AcDbLine
 10
42.795665
 20
49.195447
 30
0.0
 11
43.557031
 21
48.941543
 31
0.0
  0
LINE
  5
516
100
AcDbEntity
  8
EBENE_1
 62
     7
100
AcDbLine
 10
43.557031
 20
48.941543
 30
0.0
 11
43.811279
 21
48.941543
 31
0.0
  0
LINE
  5
515
100
AcDbEntity
  8
EBENE_1
 62
     7
100
AcDbLine
 10
43.811279
 20
48.941543
 30
0.0
 11
44.573334
 21
49.195447
 31
0.0
  0
LINE
  5
514
100
AcDbEntity
  8
EBENE_1
 62
     7
100
AcDbLine
 10
44.573334
 20
49.195447
 30
0.0
 11
45.081141
 21
49.618849
 31
0.0
  0
LINE
  5
513
100
AcDbEntity
  8
EBENE_1
 62
     7
100
AcDbLine
 10
45.081141
 20
49.618849
 30
0.0
 11
45.33539
 21
50.380732
 31
0.0
  0
LINE
  5
512
100
AcDbEntity
  8
EBENE_1
 62
     7
100
AcDbLine
 10
45.33539
 20
50.380732
 30
0.0
 11
45.33539
 21
50.634808
 31
0.0
  0
LINE
  5
511
100
AcDbEntity
  8
EBENE_1
 62
     7
100
AcDbLine
 10
45.33539
 20
50.634808
 30
0.0
 11
45.081141
 21
51.396863
 31
0.0
  0
LINE
  5
510
100
AcDbEntity
  8
EBENE_1
 62
     7
100
AcDbLine
 10
45.081141
 20
51.396863
 30
0.0
 11
44.573334
 21
51.904842
 31
0.0
  0
LINE
  5
50F
100
AcDbEntity
  8
EBENE_1
 62
     7
100
AcDbLine
 10
44.573334
 20
51.904842
 30
0.0
 11
43.811279
 21
52.158746
 31
0.0
  0
LINE
  5
50E
100
AcDbEntity
  8
EBENE_1
 62
     7
100
AcDbLine
 10
43.811279
 20
52.158746
 30
0.0
 11
43.557031
 21
52.158746
 31
0.0
  0
LINE
  5
50D
100
AcDbEntity
  8
EBENE_1
 62
     7
100
AcDbLine
 10
43.557031
 20
52.158746
 30
0.0
 11
42.795665
 21
51.904842
 31
0.0
  0
LINE
  5
50C
100
AcDbEntity
  8
EBENE_1
 62
     7
100
AcDbLine
 10
42.795665
 20
51.904842
 30
0.0
 11
42.287169
 21
51.396863
 31
0.0
  0
LINE
  5
50B
100
AcDbEntity
  8
EBENE_1
 62
     7
100
AcDbLine
 10
42.287169
 20
51.396863
 30
0.0
 11
42.03361
 21
50.634808
 31
0.0
  0
LINE
  5
50A
100
AcDbEntity
  8
EBENE_1
 62
     7
100
AcDbLine
 10
42.03361
 20
50.634808
 30
0.0
 11
42.03361
 21
50.634808
 31
0.0
  0
LINE
  5
509
100
AcDbEntity
  8
EBENE_1
 62
     7
100
AcDbLine
 10
47.282558
 20
49.364773
 30
0.0
 11
47.028998
 21
49.195447
 31
0.0
  0
LINE
  5
508
100
AcDbEntity
  8
EBENE_1
 62
     7
100
AcDbLine
 10
47.028998
 20
49.195447
 30
0.0
 11
47.282558
 21
48.941543
 31
0.0
  0
LINE
  5
507
100
AcDbEntity
  8
EBENE_1
 62
     7
100
AcDbLine
 10
47.282558
 20
48.941543
 30
0.0
 11
47.536806
 21
49.195447
 31
0.0
  0
LINE
  5
506
100
AcDbEntity
  8
EBENE_1
 62
     7
100
AcDbLine
 10
52.532194
 20
54.190835
 30
0.0
 11
50.07653
 21
54.190835
 31
0.0
  0
LINE
  5
505
100
AcDbEntity
  8
EBENE_1
 62
     7
100
AcDbLine
 10
50.07653
 20
54.190835
 30
0.0
 11
49.822971
 21
51.904842
 31
0.0
  0
LINE
  5
504
100
AcDbEntity
  8
EBENE_1
 62
     7
100
AcDbLine
 10
49.822971
 20
51.904842
 30
0.0
 11
50.07653
 21
52.158746
 31
0.0
  0
LINE
  5
503
100
AcDbEntity
  8
EBENE_1
 62
     7
100
AcDbLine
 10
50.07653
 20
52.158746
 30
0.0
 11
50.838585
 21
52.412821
 31
0.0
  0
LINE
  5
502
100
AcDbEntity
  8
EBENE_1
 62
     7
100
AcDbLine
 10
50.838585
 20
52.412821
 30
0.0
 11
51.515891
 21
52.412821
 31
0.0
  0
LINE
  5
501
100
AcDbEntity
  8
EBENE_1
 62
     7
100
AcDbLine
 10
51.515891
 20
52.412821
 30
0.0
 11
52.277946
 21
52.158746
 31
0.0
  0
LINE
  5
500
100
AcDbEntity
  8
EBENE_1
 62
     7
100
AcDbLine
 10
52.277946
 20
52.158746
 30
0.0
 11
52.785753
 21
51.650766
 31
0.0
  0
LINE
  5
4FF
100
AcDbEntity
  8
EBENE_1
 62
     7
100
AcDbLine
 10
52.785753
 20
51.650766
 30
0.0
 11
53.040001
 21
50.888883
 31
0.0
  0
LINE
  5
4FE
100
AcDbEntity
  8
EBENE_1
 62
     7
100
AcDbLine
 10
53.040001
 20
50.888883
 30
0.0
 11
53.040001
 21
50.380732
 31
0.0
  0
LINE
  5
4FD
100
AcDbEntity
  8
EBENE_1
 62
     7
100
AcDbLine
 10
53.040001
 20
50.380732
 30
0.0
 11
52.785753
 21
49.618849
 31
0.0
  0
LINE
  5
4FC
100
AcDbEntity
  8
EBENE_1
 62
     7
100
AcDbLine
 10
52.785753
 20
49.618849
 30
0.0
 11
52.277946
 21
49.195447
 31
0.0
  0
LINE
  5
4FB
100
AcDbEntity
  8
EBENE_1
 62
     7
100
AcDbLine
 10
52.277946
 20
49.195447
 30
0.0
 11
51.515891
 21
48.941543
 31
0.0
  0
LINE
  5
4FA
100
AcDbEntity
  8
EBENE_1
 62
     7
100
AcDbLine
 10
51.515891
 20
48.941543
 30
0.0
 11
50.838585
 21
48.941543
 31
0.0
  0
LINE
  5
4F9
100
AcDbEntity
  8
EBENE_1
 62
     7
100
AcDbLine
 10
50.838585
 20
48.941543
 30
0.0
 11
50.07653
 21
49.195447
 31
0.0
  0
LINE
  5
4F8
100
AcDbEntity
  8
EBENE_1
 62
     7
100
AcDbLine
 10
50.07653
 20
49.195447
 30
0.0
 11
49.822971
 21
49.364773
 31
0.0
  0
LINE
  5
4F7
100
AcDbEntity
  8
EBENE_1
 62
     7
100
AcDbLine
 10
49.822971
 20
49.364773
 30
0.0
 11
49.568723
 21
49.872753
 31
0.0
  0
LINE
  5
4F6
100
AcDbEntity
  8
EBENE_1
 62
     7
100
AcDbLine
 10
49.568723
 20
49.872753
 30
0.0
 11
49.568723
 21
49.872753
 31
0.0
  0
LINE
  5
4F5
100
AcDbEntity
  8
EBENE_1
 62
     7
100
AcDbLine
 10
54.564111
 20
48.941543
 30
0.0
 11
57.273334
 21
52.412821
 31
0.0
  0
LINE
  5
4F4
100
AcDbEntity
  8
EBENE_1
 62
     7
100
AcDbLine
 10
57.273334
 20
48.941543
 30
0.0
 11
54.564111
 21
52.412821
 31
0.0
  0
LINE
  5
4F3
100
AcDbEntity
  8
EBENE_1
 62
     7
100
AcDbLine
 10
62.014475
 20
52.412821
 30
0.0
 11
61.760916
 21
51.650766
 31
0.0
  0
LINE
  5
4F2
100
AcDbEntity
  8
EBENE_1
 62
     7
100
AcDbLine
 10
61.760916
 20
51.650766
 30
0.0
 11
61.337169
 21
51.142787
 31
0.0
  0
LINE
  5
4F1
100
AcDbEntity
  8
EBENE_1
 62
     7
100
AcDbLine
 10
61.337169
 20
51.142787
 30
0.0
 11
60.575114
 21
50.888883
 31
0.0
  0
LINE
  5
4F0
100
AcDbEntity
  8
EBENE_1
 62
     7
100
AcDbLine
 10
60.575114
 20
50.888883
 30
0.0
 11
60.321555
 21
50.888883
 31
0.0
  0
LINE
  5
4EF
100
AcDbEntity
  8
EBENE_1
 62
     7
100
AcDbLine
 10
60.321555
 20
50.888883
 30
0.0
 11
59.5595
 21
51.142787
 31
0.0
  0
LINE
  5
4EE
100
AcDbEntity
  8
EBENE_1
 62
     7
100
AcDbLine
 10
59.5595
 20
51.142787
 30
0.0
 11
59.051693
 21
51.650766
 31
0.0
  0
LINE
  5
4ED
100
AcDbEntity
  8
EBENE_1
 62
     7
100
AcDbLine
 10
59.051693
 20
51.650766
 30
0.0
 11
58.797445
 21
52.412821
 31
0.0
  0
LINE
  5
4EC
100
AcDbEntity
  8
EBENE_1
 62
     7
100
AcDbLine
 10
58.797445
 20
52.412821
 30
0.0
 11
58.797445
 21
52.666725
 31
0.0
  0
LINE
  5
4EB
100
AcDbEntity
  8
EBENE_1
 62
     7
100
AcDbLine
 10
58.797445
 20
52.666725
 30
0.0
 11
59.051693
 21
53.42878
 31
0.0
  0
LINE
  5
4EA
100
AcDbEntity
  8
EBENE_1
 62
     7
100
AcDbLine
 10
59.051693
 20
53.42878
 30
0.0
 11
59.5595
 21
53.936759
 31
0.0
  0
LINE
  5
4E9
100
AcDbEntity
  8
EBENE_1
 62
     7
100
AcDbLine
 10
59.5595
 20
53.936759
 30
0.0
 11
60.321555
 21
54.190835
 31
0.0
  0
LINE
  5
4E8
100
AcDbEntity
  8
EBENE_1
 62
     7
100
AcDbLine
 10
60.321555
 20
54.190835
 30
0.0
 11
60.575114
 21
54.190835
 31
0.0
  0
LINE
  5
4E7
100
AcDbEntity
  8
EBENE_1
 62
     7
100
AcDbLine
 10
60.575114
 20
54.190835
 30
0.0
 11
61.337169
 21
53.936759
 31
0.0
  0
LINE
  5
4E6
100
AcDbEntity
  8
EBENE_1
 62
     7
100
AcDbLine
 10
61.337169
 20
53.936759
 30
0.0
 11
61.760916
 21
53.42878
 31
0.0
  0
LINE
  5
4E5
100
AcDbEntity
  8
EBENE_1
 62
     7
100
AcDbLine
 10
61.760916
 20
53.42878
 30
0.0
 11
62.014475
 21
52.412821
 31
0.0
  0
LINE
  5
4E4
100
AcDbEntity
  8
EBENE_1
 62
     7
100
AcDbLine
 10
62.014475
 20
52.412821
 30
0.0
 11
62.014475
 21
51.142787
 31
0.0
  0
LINE
  5
4E3
100
AcDbEntity
  8
EBENE_1
 62
     7
100
AcDbLine
 10
62.014475
 20
51.142787
 30
0.0
 11
61.760916
 21
49.872753
 31
0.0
  0
LINE
  5
4E2
100
AcDbEntity
  8
EBENE_1
 62
     7
100
AcDbLine
 10
61.760916
 20
49.872753
 30
0.0
 11
61.337169
 21
49.195447
 31
0.0
  0
LINE
  5
4E1
100
AcDbEntity
  8
EBENE_1
 62
     7
100
AcDbLine
 10
61.337169
 20
49.195447
 30
0.0
 11
60.575114
 21
48.941543
 31
0.0
  0
LINE
  5
4E0
100
AcDbEntity
  8
EBENE_1
 62
     7
100
AcDbLine
 10
60.575114
 20
48.941543
 30
0.0
 11
60.067307
 21
48.941543
 31
0.0
  0
LINE
  5
4DF
100
AcDbEntity
  8
EBENE_1
 62
     7
100
AcDbLine
 10
60.067307
 20
48.941543
 30
0.0
 11
59.305252
 21
49.195447
 31
0.0
  0
LINE
  5
4DE
100
AcDbEntity
  8
EBENE_1
 62
     7
100
AcDbLine
 10
59.305252
 20
49.195447
 30
0.0
 11
59.051693
 21
49.618849
 31
0.0
  0
LINE
  5
4DD
100
AcDbEntity
  8
EBENE_1
 62
     7
100
AcDbLine
 10
59.051693
 20
49.618849
 30
0.0
 11
59.051693
 21
49.618849
 31
0.0
  0
LINE
  5
4DC
100
AcDbEntity
  8
EBENE_1
 62
     7
100
AcDbLine
 10
65.316943
 20
54.190835
 30
0.0
 11
64.554888
 21
53.936759
 31
0.0
  0
LINE
  5
4DB
100
AcDbEntity
  8
EBENE_1
 62
     7
100
AcDbLine
 10
64.554888
 20
53.936759
 30
0.0
 11
64.046392
 21
53.174877
 31
0.0
  0
LINE
  5
4DA
100
AcDbEntity
  8
EBENE_1
 62
     7
100
AcDbLine
 10
64.046392
 20
53.174877
 30
0.0
 11
63.792833
 21
51.904842
 31
0.0
  0
LINE
  5
4D9
100
AcDbEntity
  8
EBENE_1
 62
     7
100
AcDbLine
 10
63.792833
 20
51.904842
 30
0.0
 11
63.792833
 21
51.142787
 31
0.0
  0
LINE
  5
4D8
100
AcDbEntity
  8
EBENE_1
 62
     7
100
AcDbLine
 10
63.792833
 20
51.142787
 30
0.0
 11
64.046392
 21
49.872753
 31
0.0
  0
LINE
  5
4D7
100
AcDbEntity
  8
EBENE_1
 62
     7
100
AcDbLine
 10
64.046392
 20
49.872753
 30
0.0
 11
64.554888
 21
49.195447
 31
0.0
  0
LINE
  5
4D6
100
AcDbEntity
  8
EBENE_1
 62
     7
100
AcDbLine
 10
64.554888
 20
49.195447
 30
0.0
 11
65.316943
 21
48.941543
 31
0.0
  0
LINE
  5
4D5
100
AcDbEntity
  8
EBENE_1
 62
     7
100
AcDbLine
 10
65.316943
 20
48.941543
 30
0.0
 11
65.82475
 21
48.941543
 31
0.0
  0
LINE
  5
4D4
100
AcDbEntity
  8
EBENE_1
 62
     7
100
AcDbLine
 10
65.82475
 20
48.941543
 30
0.0
 11
66.586806
 21
49.195447
 31
0.0
  0
LINE
  5
4D3
100
AcDbEntity
  8
EBENE_1
 62
     7
100
AcDbLine
 10
66.586806
 20
49.195447
 30
0.0
 11
67.009863
 21
49.872753
 31
0.0
  0
LINE
  5
4D2
100
AcDbEntity
  8
EBENE_1
 62
     7
100
AcDbLine
 10
67.009863
 20
49.872753
 30
0.0
 11
67.264111
 21
51.142787
 31
0.0
  0
LINE
  5
4D1
100
AcDbEntity
  8
EBENE_1
 62
     7
100
AcDbLine
 10
67.264111
 20
51.142787
 30
0.0
 11
67.264111
 21
51.904842
 31
0.0
  0
LINE
  5
4D0
100
AcDbEntity
  8
EBENE_1
 62
     7
100
AcDbLine
 10
67.264111
 20
51.904842
 30
0.0
 11
67.009863
 21
53.174877
 31
0.0
  0
LINE
  5
4CF
100
AcDbEntity
  8
EBENE_1
 62
     7
100
AcDbLine
 10
67.009863
 20
53.174877
 30
0.0
 11
66.586806
 21
53.936759
 31
0.0
  0
LINE
  5
4CE
100
AcDbEntity
  8
EBENE_1
 62
     7
100
AcDbLine
 10
66.586806
 20
53.936759
 30
0.0
 11
65.82475
 21
54.190835
 31
0.0
  0
LINE
  5
4CD
100
AcDbEntity
  8
EBENE_1
 62
     7
100
AcDbLine
 10
65.82475
 20
54.190835
 30
0.0
 11
65.316943
 21
54.190835
 31
0.0
  0
LINE
  5
4CC
100
AcDbEntity
  8
EBENE_1
 62
     7
100
AcDbLine
 10
65.316943
 20
54.190835
 30
0.0
 11
65.316943
 21
54.190835
 31
0.0
  0
LINE
  5
4CB
100
AcDbEntity
  8
EBENE_1
 62
     7
100
AcDbLine
 10
69.803836
 20
53.682856
 30
0.0
 11
69.635026
 21
54.021509
 31
0.0
  0
LINE
  5
4CA
100
AcDbEntity
  8
EBENE_1
 62
     7
100
AcDbLine
 10
69.635026
 20
54.021509
 30
0.0
 11
69.296029
 21
54.190835
 31
0.0
  0
LINE
  5
4C9
100
AcDbEntity
  8
EBENE_1
 62
     7
100
AcDbLine
 10
69.296029
 20
54.190835
 30
0.0
 11
68.957031
 21
54.021509
 31
0.0
  0
LINE
  5
4C8
100
AcDbEntity
  8
EBENE_1
 62
     7
100
AcDbLine
 10
68.957031
 20
54.021509
 30
0.0
 11
68.788222
 21
53.682856
 31
0.0
  0
LINE
  5
4C7
100
AcDbEntity
  8
EBENE_1
 62
     7
100
AcDbLine
 10
68.788222
 20
53.682856
 30
0.0
 11
68.957031
 21
53.344203
 31
0.0
  0
LINE
  5
4C6
100
AcDbEntity
  8
EBENE_1
 62
     7
100
AcDbLine
 10
68.957031
 20
53.344203
 30
0.0
 11
69.296029
 21
53.174877
 31
0.0
  0
LINE
  5
4C5
100
AcDbEntity
  8
EBENE_1
 62
     7
100
AcDbLine
 10
69.296029
 20
53.174877
 30
0.0
 11
69.635026
 21
53.344203
 31
0.0
  0
LINE
  5
4C4
100
AcDbEntity
  8
EBENE_1
 62
     7
100
AcDbLine
 10
69.635026
 20
53.344203
 30
0.0
 11
69.803836
 21
53.682856
 31
0.0
  0
LINE
  5
4C3
100
AcDbEntity
  8
EBENE_1
 62
     7
100
AcDbLine
 10
55.326166
 20
47.417433
 30
0.0
 11
48.806668
 21
47.417433
 31
0.0
  0
LINE
  5
4C2
100
AcDbEntity
  8
EBENE_1
 62
     7
100
AcDbLine
 10
55.326166
 20
47.417433
 30
0.0
 11
48.806668
 21
47.417433
 31
0.0
  0
POLYLINE
  5
4BD
100
AcDbEntity
  8
EBENE_1
 62
     7
100
AcDb2dPolyline
 66
     1
 10
0.0
 20
0.0
 30
0.0
 70
     1
  0
VERTEX
  5
4BE
100
AcDbEntity
  8
EBENE_1
 62
     7
100
AcDbVertex
100
AcDb2dVertex
 10
60.575114
 20
48.264065
 30
0.0
  0
VERTEX
  5
4BF
100
AcDbEntity
  8
EBENE_1
 62
     7
100
AcDbVertex
100
AcDb2dVertex
 10
60.575114
 20
46.570801
 30
0.0
  0
VERTEX
  5
4C0
100
AcDbEntity
  8
EBENE_1
 62
     7
100
AcDbVertex
100
AcDb2dVertex
 10
55.326166
 20
47.417433
 30
0.0
  0
SEQEND
  5
4C1
100
AcDbEntity
  8
EBENE_1
 62
     7
  0
HATCH
  5
4BC
100
AcDbEntity
  8
EBENE_1
 62
     7
100
AcDbHatch
 10
0.0
 20
0.0
 30
0.0
210
0.0
220
0.0
230
1.0
  2
SOLID
 70
     1
 71
     0
 91
        1
 92
        3
 72
     0
 73
     1
 93
        3
 10
60.575113932291664
 20
48.264065212673607
 10
60.575113932291664
 20
46.570800781249993
 10
55.326166449652774
 20
47.4174329969618
 97
        0
 75
     0
 76
     1
 98
        1
 10
0.0
 20
0.0
  0
POLYLINE
  5
4B7
100
AcDbEntity
  8
EBENE_1
 62
     7
100
AcDb2dPolyline
 66
     1
 10
0.0
 20
0.0
 30
0.0
 70
     1
  0
VERTEX
  5
4B8
100
AcDbEntity
  8
EBENE_1
 62
     7
100
AcDbVertex
100
AcDb2dVertex
 10
43.557031
 20
48.264065
 30
0.0
  0
VERTEX
  5
4B9
100
AcDbEntity
  8
EBENE_1
 62
     7
100
AcDbVertex
100
AcDb2dVertex
 10
43.557031
 20
46.570801
 30
0.0
  0
VERTEX
  5
4BA
100
AcDbEntity
  8
EBENE_1
 62
     7
100
AcDbVertex
100
AcDb2dVertex
 10
48.806668
 20
47.417433
 30
0.0
  0
SEQEND
  5
4BB
100
AcDbEntity
  8
EBENE_1
 62
     7
  0
HATCH
  5
4B6
100
AcDbEntity
  8
EBENE_1
 62
     7
100
AcDbHatch
 10
0.0
 20
0.0
 30
0.0
210
0.0
220
0.0
230
1.0
  2
SOLID
 70
     1
 71
     0
 91
        1
 92
        3
 72
     0
 73
     1
 93
        3
 10
43.557031249999994
 20
48.264065212673607
 10
43.557031249999994
 20
46.570800781249993
 10
48.806667751736107
 20
47.4174329969618
 97
        0
 75
     0
 76
     1
 98
        1
 10
0.0
 20
0.0
  0
LINE
  5
4B5
100
AcDbEntity
  8
EBENE_1
 62
     7
100
AcDbLine
 10
57.612332
 20
78.82878
 30
0.0
 11
57.612332
 21
90.004842
 31
0.0
  0
LINE
  5
4B4
100
AcDbEntity
  8
EBENE_1
 62
     7
100
AcDbLine
 10
46.605252
 20
78.82878
 30
0.0
 11
46.605252
 21
90.004842
 31
0.0
  0
LINE
  5
4B3
100
AcDbEntity
  8
EBENE_1
 62
     7
100
AcDbLine
 10
62.861279
 20
89.242787
 30
0.0
 11
68.110916
 21
89.242787
 31
0.0
  0
LINE
  5
4B2
100
AcDbEntity
  8
EBENE_1
 62
     7
100
AcDbLine
 10
41.356304
 20
89.242787
 30
0.0
 11
36.106668
 21
89.242787
 31
0.0
  0
LINE
  5
4B1
100
AcDbEntity
  8
EBENE_1
 62
     7
100
AcDbLine
 10
57.612332
 20
89.242787
 30
0.0
 11
46.605252
 21
89.242787
 31
0.0
  0
POLYLINE
  5
4AC
100
AcDbEntity
  8
EBENE_1
 62
     7
100
AcDb2dPolyline
 66
     1
 10
0.0
 20
0.0
 30
0.0
 70
     1
  0
VERTEX
  5
4AD
100
AcDbEntity
  8
EBENE_1
 62
     7
100
AcDbVertex
100
AcDb2dVertex
 10
62.861279
 20
90.174169
 30
0.0
  0
VERTEX
  5
4AE
100
AcDbEntity
  8
EBENE_1
 62
     7
100
AcDbVertex
100
AcDb2dVertex
 10
62.861279
 20
88.396155
 30
0.0
  0
VERTEX
  5
4AF
100
AcDbEntity
  8
EBENE_1
 62
     7
100
AcDbVertex
100
AcDb2dVertex
 10
57.612332
 20
89.242787
 30
0.0
  0
SEQEND
  5
4B0
100
AcDbEntity
  8
EBENE_1
 62
     7
  0
HATCH
  5
4AB
100
AcDbEntity
  8
EBENE_1
 62
     7
100
AcDbHatch
 10
0.0
 20
0.0
 30
0.0
210
0.0
220
0.0
230
1.0
  2
SOLID
 70
     1
 71
     0
 91
        1
 92
        3
 72
     0
 73
     1
 93
        3
 10
62.861279296874997
 20
90.174168565538181
 10
62.861279296874997
 20
88.396154785156241
 10
57.612331814236107
 20
89.242787000868049
 97
        0
 75
     0
 76
     1
 98
        1
 10
0.0
 20
0.0
  0
POLYLINE
  5
4A6
100
AcDbEntity
  8
EBENE_1
 62
     7
100
AcDb2dPolyline
 66
     1
 10
0.0
 20
0.0
 30
0.0
 70
     1
  0
VERTEX
  5
4A7
100
AcDbEntity
  8
EBENE_1
 62
     7
100
AcDbVertex
100
AcDb2dVertex
 10
41.356304
 20
90.174169
 30
0.0
  0
VERTEX
  5
4A8
100
AcDbEntity
  8
EBENE_1
 62
     7
100
AcDbVertex
100
AcDb2dVertex
 10
41.356304
 20
88.396155
 30
0.0
  0
VERTEX
  5
4A9
100
AcDbEntity
  8
EBENE_1
 62
     7
100
AcDbVertex
100
AcDb2dVertex
 10
46.605252
 20
89.242787
 30
0.0
  0
SEQEND
  5
4AA
100
AcDbEntity
  8
EBENE_1
 62
     7
  0
HATCH
  5
4A5
100
AcDbEntity
  8
EBENE_1
 62
     7
100
AcDbHatch
 10
0.0
 20
0.0
 30
0.0
210
0.0
220
0.0
230
1.0
  2
SOLID
 70
     1
 71
     0
 91
        1
 92
        3
 72
     0
 73
     1
 93
        3
 10
41.356304253472217
 20
90.174168565538181
 10
41.356304253472217
 20
88.396154785156241
 10
46.605251736111107
 20
89.242787000868049
 97
        0
 75
     0
 76
     1
 98
        1
 10
0.0
 20
0.0
  0
LINE
  5
4A4
100
AcDbEntity
  8
EBENE_1
 62
     7
100
AcDbLine
 10
49.483974
 20
95.000058
 30
0.0
 11
49.991781
 21
95.254134
 31
0.0
  0
LINE
  5
4A3
100
AcDbEntity
  8
EBENE_1
 62
     7
100
AcDbLine
 10
49.991781
 20
95.254134
 30
0.0
 11
50.753836
 21
96.016189
 31
0.0
  0
LINE
  5
4A2
100
AcDbEntity
  8
EBENE_1
 62
     7
100
AcDbLine
 10
50.753836
 20
96.016189
 30
0.0
 11
50.753836
 21
90.766725
 31
0.0
  0
LINE
  5
4A1
100
AcDbEntity
  8
EBENE_1
 62
     7
100
AcDbLine
 10
53.463059
 20
95.000058
 30
0.0
 11
53.971555
 21
95.254134
 31
0.0
  0
LINE
  5
4A0
100
AcDbEntity
  8
EBENE_1
 62
     7
100
AcDbLine
 10
53.971555
 20
95.254134
 30
0.0
 11
54.73361
 21
96.016189
 31
0.0
  0
LINE
  5
49F
100
AcDbEntity
  8
EBENE_1
 62
     7
100
AcDbLine
 10
54.73361
 20
96.016189
 30
0.0
 11
54.73361
 21
90.766725
 31
0.0
  0
LINE
  5
49E
100
AcDbEntity
  8
EBENE_1
 62
     7
100
AcDbLine
 10
-25.530569
 20
30.314773
 30
0.0
 11
-25.530569
 21
41.744739
 31
0.0
  0
LINE
  5
49D
100
AcDbEntity
  8
EBENE_1
 62
     7
100
AcDbLine
 10
-34.505215
 20
38.188883
 30
0.0
 11
-34.505215
 21
41.744739
 31
0.0
  0
LINE
  5
49C
100
AcDbEntity
  8
EBENE_1
 62
     7
100
AcDbLine
 10
-20.281277
 20
40.982856
 30
0.0
 11
-15.031985
 21
40.982856
 31
0.0
  0
LINE
  5
49B
100
AcDbEntity
  8
EBENE_1
 62
     7
100
AcDbLine
 10
-39.754679
 20
40.982856
 30
0.0
 11
-45.003971
 21
40.982856
 31
0.0
  0
LINE
  5
49A
100
AcDbEntity
  8
EBENE_1
 62
     7
100
AcDbLine
 10
-25.530569
 20
40.982856
 30
0.0
 11
-34.505215
 21
40.982856
 31
0.0
  0
POLYLINE
  5
495
100
AcDbEntity
  8
EBENE_1
 62
     7
100
AcDb2dPolyline
 66
     1
 10
0.0
 20
0.0
 30
0.0
 70
     1
  0
VERTEX
  5
496
100
AcDbEntity
  8
EBENE_1
 62
     7
100
AcDbVertex
100
AcDb2dVertex
 10
-20.281277
 20
41.829488
 30
0.0
  0
VERTEX
  5
497
100
AcDbEntity
  8
EBENE_1
 62
     7
100
AcDbVertex
100
AcDb2dVertex
 10
-20.281277
 20
40.051474
 30
0.0
  0
VERTEX
  5
498
100
AcDbEntity
  8
EBENE_1
 62
     7
100
AcDbVertex
100
AcDb2dVertex
 10
-25.530569
 20
40.982856
 30
0.0
  0
SEQEND
  5
499
100
AcDbEntity
  8
EBENE_1
 62
     7
  0
HATCH
  5
494
100
AcDbEntity
  8
EBENE_1
 62
     7
100
AcDbHatch
 10
0.0
 20
0.0
 30
0.0
210
0.0
220
0.0
230
1.0
  2
SOLID
 70
     1
 71
     0
 91
        1
 92
        3
 72
     0
 73
     1
 93
        3
 10
-20.281277126736111
 20
41.829488118489579
 10
-20.281277126736111
 20
40.051474338107639
 10
-25.530569118923609
 20
40.982855902777771
 97
        0
 75
     0
 76
     1
 98
        1
 10
0.0
 20
0.0
  0
POLYLINE
  5
48F
100
AcDbEntity
  8
EBENE_1
 62
     7
100
AcDb2dPolyline
 66
     1
 10
0.0
 20
0.0
 30
0.0
 70
     1
  0
VERTEX
  5
490
100
AcDbEntity
  8
EBENE_1
 62
     7
100
AcDbVertex
100
AcDb2dVertex
 10
-39.754679
 20
41.829488
 30
0.0
  0
VERTEX
  5
491
100
AcDbEntity
  8
EBENE_1
 62
     7
100
AcDbVertex
100
AcDb2dVertex
 10
-39.754679
 20
40.051474
 30
0.0
  0
VERTEX
  5
492
100
AcDbEntity
  8
EBENE_1
 62
     7
100
AcDbVertex
100
AcDb2dVertex
 10
-34.505215
 20
40.982856
 30
0.0
  0
SEQEND
  5
493
100
AcDbEntity
  8
EBENE_1
 62
     7
  0
HATCH
  5
48E
100
AcDbEntity
  8
EBENE_1
 62
     7
100
AcDbHatch
 10
0.0
 20
0.0
 30
0.0
210
0.0
220
0.0
230
1.0
  2
SOLID
 70
     1
 71
     0
 91
        1
 92
        3
 72
     0
 73
     1
 93
        3
 10
-39.754679361979164
 20
41.829488118489579
 10
-39.754679361979164
 20
40.051474338107639
 10
-34.505215115017357
 20
40.982855902777771
 97
        0
 75
     0
 76
     1
 98
        1
 10
0.0
 20
0.0
  0
LINE
  5
48D
100
AcDbEntity
  8
EBENE_1
 62
     7
100
AcDbLine
 10
-28.409291
 20
45.978072
 30
0.0
 11
-28.578617
 21
45.216189
 31
0.0
  0
LINE
  5
48C
100
AcDbEntity
  8
EBENE_1
 62
     7
100
AcDbLine
 10
-28.578617
 20
45.216189
 30
0.0
 11
-29.086597
 21
44.70821
 31
0.0
  0
LINE
  5
48B
100
AcDbEntity
  8
EBENE_1
 62
     7
100
AcDbLine
 10
-29.086597
 20
44.70821
 30
0.0
 11
-29.848652
 21
44.454134
 31
0.0
  0
LINE
  5
48A
100
AcDbEntity
  8
EBENE_1
 62
     7
100
AcDbLine
 10
-29.848652
 20
44.454134
 30
0.0
 11
-30.102555
 21
44.454134
 31
0.0
  0
LINE
  5
489
100
AcDbEntity
  8
EBENE_1
 62
     7
100
AcDbLine
 10
-30.102555
 20
44.454134
 30
0.0
 11
-30.86461
 21
44.70821
 31
0.0
  0
LINE
  5
488
100
AcDbEntity
  8
EBENE_1
 62
     7
100
AcDbLine
 10
-30.86461
 20
44.70821
 30
0.0
 11
-31.37259
 21
45.216189
 31
0.0
  0
LINE
  5
487
100
AcDbEntity
  8
EBENE_1
 62
     7
100
AcDbLine
 10
-31.37259
 20
45.216189
 30
0.0
 11
-31.626666
 21
45.978072
 31
0.0
  0
LINE
  5
486
100
AcDbEntity
  8
EBENE_1
 62
     7
100
AcDbLine
 10
-31.626666
 20
45.978072
 30
0.0
 11
-31.626666
 21
46.232148
 31
0.0
  0
LINE
  5
485
100
AcDbEntity
  8
EBENE_1
 62
     7
100
AcDbLine
 10
-31.626666
 20
46.232148
 30
0.0
 11
-31.37259
 21
46.994203
 31
0.0
  0
LINE
  5
484
100
AcDbEntity
  8
EBENE_1
 62
     7
100
AcDbLine
 10
-31.37259
 20
46.994203
 30
0.0
 11
-30.86461
 21
47.502182
 31
0.0
  0
LINE
  5
483
100
AcDbEntity
  8
EBENE_1
 62
     7
100
AcDbLine
 10
-30.86461
 20
47.502182
 30
0.0
 11
-30.102555
 21
47.671509
 31
0.0
  0
LINE
  5
482
100
AcDbEntity
  8
EBENE_1
 62
     7
100
AcDbLine
 10
-30.102555
 20
47.671509
 30
0.0
 11
-29.848652
 21
47.671509
 31
0.0
  0
LINE
  5
481
100
AcDbEntity
  8
EBENE_1
 62
     7
100
AcDbLine
 10
-29.848652
 20
47.671509
 30
0.0
 11
-29.086597
 21
47.502182
 31
0.0
  0
LINE
  5
480
100
AcDbEntity
  8
EBENE_1
 62
     7
100
AcDbLine
 10
-29.086597
 20
47.502182
 30
0.0
 11
-28.578617
 21
46.994203
 31
0.0
  0
LINE
  5
47F
100
AcDbEntity
  8
EBENE_1
 62
     7
100
AcDbLine
 10
-28.578617
 20
46.994203
 30
0.0
 11
-28.409291
 21
45.978072
 31
0.0
  0
LINE
  5
47E
100
AcDbEntity
  8
EBENE_1
 62
     7
100
AcDbLine
 10
-28.409291
 20
45.978072
 30
0.0
 11
-28.409291
 21
44.70821
 31
0.0
  0
LINE
  5
47D
100
AcDbEntity
  8
EBENE_1
 62
     7
100
AcDbLine
 10
-28.409291
 20
44.70821
 30
0.0
 11
-28.578617
 21
43.438175
 31
0.0
  0
LINE
  5
47C
100
AcDbEntity
  8
EBENE_1
 62
     7
100
AcDbLine
 10
-28.578617
 20
43.438175
 30
0.0
 11
-29.086597
 21
42.67612
 31
0.0
  0
LINE
  5
47B
100
AcDbEntity
  8
EBENE_1
 62
     7
100
AcDbLine
 10
-29.086597
 20
42.67612
 30
0.0
 11
-29.848652
 21
42.422217
 31
0.0
  0
LINE
  5
47A
100
AcDbEntity
  8
EBENE_1
 62
     7
100
AcDbLine
 10
-29.848652
 20
42.422217
 30
0.0
 11
-30.356631
 21
42.422217
 31
0.0
  0
LINE
  5
479
100
AcDbEntity
  8
EBENE_1
 62
     7
100
AcDbLine
 10
-30.356631
 20
42.422217
 30
0.0
 11
-31.118686
 21
42.67612
 31
0.0
  0
LINE
  5
478
100
AcDbEntity
  8
EBENE_1
 62
     7
100
AcDbLine
 10
-31.118686
 20
42.67612
 30
0.0
 11
-31.37259
 21
43.1841
 31
0.0
  0
LINE
  5
477
100
AcDbEntity
  8
EBENE_1
 62
     7
100
AcDbLine
 10
-31.37259
 20
43.1841
 30
0.0
 11
-31.37259
 21
43.1841
 31
0.0
  0
LINE
  5
476
100
AcDbEntity
  8
EBENE_1
 62
     7
100
AcDbLine
 10
46.605252
 20
37.342079
 30
0.0
 11
34.752056
 21
37.342079
 31
0.0
  0
LINE
  5
475
100
AcDbEntity
  8
EBENE_1
 62
     7
100
AcDbLine
 10
45.081141
 20
77.304842
 30
0.0
 11
34.752056
 21
77.304842
 31
0.0
  0
LINE
  5
474
100
AcDbEntity
  8
EBENE_1
 62
     7
100
AcDbLine
 10
35.514111
 20
42.591543
 30
0.0
 11
35.514111
 21
72.05555
 31
0.0
  0
POLYLINE
  5
46F
100
AcDbEntity
  8
EBENE_1
 62
     7
100
AcDb2dPolyline
 66
     1
 10
0.0
 20
0.0
 30
0.0
 70
     1
  0
VERTEX
  5
470
100
AcDbEntity
  8
EBENE_1
 62
     7
100
AcDbVertex
100
AcDb2dVertex
 10
34.667307
 20
42.591543
 30
0.0
  0
VERTEX
  5
471
100
AcDbEntity
  8
EBENE_1
 62
     7
100
AcDbVertex
100
AcDb2dVertex
 10
36.360916
 20
42.591543
 30
0.0
  0
VERTEX
  5
472
100
AcDbEntity
  8
EBENE_1
 62
     7
100
AcDbVertex
100
AcDb2dVertex
 10
35.514111
 20
37.342079
 30
0.0
  0
SEQEND
  5
473
100
AcDbEntity
  8
EBENE_1
 62
     7
  0
HATCH
  5
46E
100
AcDbEntity
  8
EBENE_1
 62
     7
100
AcDbHatch
 10
0.0
 20
0.0
 30
0.0
210
0.0
220
0.0
230
1.0
  2
SOLID
 70
     1
 71
     0
 91
        1
 92
        3
 72
     0
 73
     1
 93
        3
 10
34.667306857638884
 20
42.591543240017359
 10
36.36091579861111
 20
42.591543240017359
 10
35.514111328124997
 20
37.342078993055551
 97
        0
 75
     0
 76
     1
 98
        1
 10
0.0
 20
0.0
  0
POLYLINE
  5
469
100
AcDbEntity
  8
EBENE_1
 62
     7
100
AcDb2dPolyline
 66
     1
 10
0.0
 20
0.0
 30
0.0
 70
     1
  0
VERTEX
  5
46A
100
AcDbEntity
  8
EBENE_1
 62
     7
100
AcDbVertex
100
AcDb2dVertex
 10
34.667307
 20
72.05555
 30
0.0
  0
VERTEX
  5
46B
100
AcDbEntity
  8
EBENE_1
 62
     7
100
AcDbVertex
100
AcDb2dVertex
 10
36.360916
 20
72.05555
 30
0.0
  0
VERTEX
  5
46C
100
AcDbEntity
  8
EBENE_1
 62
     7
100
AcDbVertex
100
AcDb2dVertex
 10
35.514111
 20
77.304842
 30
0.0
  0
SEQEND
  5
46D
100
AcDbEntity
  8
EBENE_1
 62
     7
  0
HATCH
  5
468
100
AcDbEntity
  8
EBENE_1
 62
     7
100
AcDbHatch
 10
0.0
 20
0.0
 30
0.0
210
0.0
220
0.0
230
1.0
  2
SOLID
 70
     1
 71
     0
 91
        1
 92
        3
 72
     0
 73
     1
 93
        3
 10
34.667306857638884
 20
72.055550130208331
 10
36.36091579861111
 20
72.055550130208331
 10
35.514111328124997
 20
77.304842122395826
 97
        0
 75
     0
 76
     1
 98
        1
 10
0.0
 20
0.0
  0
LINE
  5
467
100
AcDbEntity
  8
EBENE_1
 62
     7
100
AcDbLine
 10
28.740365
 20
55.630196
 30
0.0
 11
32.296392
 21
53.090127
 31
0.0
  0
LINE
  5
466
100
AcDbEntity
  8
EBENE_1
 62
     7
100
AcDbLine
 10
32.296392
 20
53.090127
 30
0.0
 11
32.296392
 21
56.815481
 31
0.0
  0
LINE
  5
465
100
AcDbEntity
  8
EBENE_1
 62
     7
100
AcDbLine
 10
28.740365
 20
55.630196
 30
0.0
 11
33.990001
 21
55.630196
 31
0.0
  0
LINE
  5
464
100
AcDbEntity
  8
EBENE_1
 62
     7
100
AcDbLine
 10
28.740365
 20
59.609454
 30
0.0
 11
28.994613
 21
58.847399
 31
0.0
  0
LINE
  5
463
100
AcDbEntity
  8
EBENE_1
 62
     7
100
AcDbLine
 10
28.994613
 20
58.847399
 30
0.0
 11
29.756668
 21
58.339419
 31
0.0
  0
LINE
  5
462
100
AcDbEntity
  8
EBENE_1
 62
     7
100
AcDbLine
 10
29.756668
 20
58.339419
 30
0.0
 11
31.02653
 21
58.085516
 31
0.0
  0
LINE
  5
461
100
AcDbEntity
  8
EBENE_1
 62
     7
100
AcDbLine
 10
31.02653
 20
58.085516
 30
0.0
 11
31.788585
 21
58.085516
 31
0.0
  0
LINE
  5
460
100
AcDbEntity
  8
EBENE_1
 62
     7
100
AcDbLine
 10
31.788585
 20
58.085516
 30
0.0
 11
32.973698
 21
58.339419
 31
0.0
  0
LINE
  5
45F
100
AcDbEntity
  8
EBENE_1
 62
     7
100
AcDbLine
 10
32.973698
 20
58.339419
 30
0.0
 11
33.735753
 21
58.847399
 31
0.0
  0
LINE
  5
45E
100
AcDbEntity
  8
EBENE_1
 62
     7
100
AcDbLine
 10
33.735753
 20
58.847399
 30
0.0
 11
33.990001
 21
59.609454
 31
0.0
  0
LINE
  5
45D
100
AcDbEntity
  8
EBENE_1
 62
     7
100
AcDbLine
 10
33.990001
 20
59.609454
 30
0.0
 11
33.990001
 21
60.117433
 31
0.0
  0
LINE
  5
45C
100
AcDbEntity
  8
EBENE_1
 62
     7
100
AcDbLine
 10
33.990001
 20
60.117433
 30
0.0
 11
33.735753
 21
60.879488
 31
0.0
  0
LINE
  5
45B
100
AcDbEntity
  8
EBENE_1
 62
     7
100
AcDbLine
 10
33.735753
 20
60.879488
 30
0.0
 11
32.973698
 21
61.387467
 31
0.0
  0
LINE
  5
45A
100
AcDbEntity
  8
EBENE_1
 62
     7
100
AcDbLine
 10
32.973698
 20
61.387467
 30
0.0
 11
31.788585
 21
61.556794
 31
0.0
  0
LINE
  5
459
100
AcDbEntity
  8
EBENE_1
 62
     7
100
AcDbLine
 10
31.788585
 20
61.556794
 30
0.0
 11
31.02653
 21
61.556794
 31
0.0
  0
LINE
  5
458
100
AcDbEntity
  8
EBENE_1
 62
     7
100
AcDbLine
 10
31.02653
 20
61.556794
 30
0.0
 11
29.756668
 21
61.387467
 31
0.0
  0
LINE
  5
457
100
AcDbEntity
  8
EBENE_1
 62
     7
100
AcDbLine
 10
29.756668
 20
61.387467
 30
0.0
 11
28.994613
 21
60.879488
 31
0.0
  0
LINE
  5
456
100
AcDbEntity
  8
EBENE_1
 62
     7
100
AcDbLine
 10
28.994613
 20
60.879488
 30
0.0
 11
28.740365
 21
60.117433
 31
0.0
  0
LINE
  5
455
100
AcDbEntity
  8
EBENE_1
 62
     7
100
AcDbLine
 10
28.740365
 20
60.117433
 30
0.0
 11
28.740365
 21
59.609454
 31
0.0
  0
LINE
  5
454
100
AcDbEntity
  8
EBENE_1
 62
     7
100
AcDbLine
 10
28.740365
 20
59.609454
 30
0.0
 11
28.740365
 21
59.609454
 31
0.0
  0
LINE
  5
453
100
AcDbEntity
  8
EBENE_1
 62
     7
100
AcDbLine
 10
-34.505215
 20
78.82878
 30
0.0
 11
-34.505215
 21
90.004842
 31
0.0
  0
LINE
  5
452
100
AcDbEntity
  8
EBENE_1
 62
     7
100
AcDbLine
 10
-12.491916
 20
46.824877
 30
0.0
 11
-12.491916
 21
90.004842
 31
0.0
  0
LINE
  5
451
100
AcDbEntity
  8
EBENE_1
 62
     7
100
AcDbLine
 10
-29.255923
 20
89.242787
 30
0.0
 11
-17.74138
 21
89.242787
 31
0.0
  0
POLYLINE
  5
44C
100
AcDbEntity
  8
EBENE_1
 62
     7
100
AcDb2dPolyline
 66
     1
 10
0.0
 20
0.0
 30
0.0
 70
     1
  0
VERTEX
  5
44D
100
AcDbEntity
  8
EBENE_1
 62
     7
100
AcDbVertex
100
AcDb2dVertex
 10
-29.255923
 20
90.174169
 30
0.0
  0
VERTEX
  5
44E
100
AcDbEntity
  8
EBENE_1
 62
     7
100
AcDbVertex
100
AcDb2dVertex
 10
-29.255923
 20
88.396155
 30
0.0
  0
VERTEX
  5
44F
100
AcDbEntity
  8
EBENE_1
 62
     7
100
AcDbVertex
100
AcDb2dVertex
 10
-34.505215
 20
89.242787
 30
0.0
  0
SEQEND
  5
450
100
AcDbEntity
  8
EBENE_1
 62
     7
  0
HATCH
  5
44B
100
AcDbEntity
  8
EBENE_1
 62
     7
100
AcDbHatch
 10
0.0
 20
0.0
 30
0.0
210
0.0
220
0.0
230
1.0
  2
SOLID
 70
     1
 71
     0
 91
        1
 92
        3
 72
     0
 73
     1
 93
        3
 10
-29.255923122829859
 20
90.174168565538181
 10
-29.255923122829859
 20
88.396154785156241
 10
-34.505215115017357
 20
89.242787000868049
 97
        0
 75
     0
 76
     1
 98
        1
 10
0.0
 20
0.0
  0
POLYLINE
  5
446
100
AcDbEntity
  8
EBENE_1
 62
     7
100
AcDb2dPolyline
 66
     1
 10
0.0
 20
0.0
 30
0.0
 70
     1
  0
VERTEX
  5
447
100
AcDbEntity
  8
EBENE_1
 62
     7
100
AcDbVertex
100
AcDb2dVertex
 10
-17.74138
 20
90.174169
 30
0.0
  0
VERTEX
  5
448
100
AcDbEntity
  8
EBENE_1
 62
     7
100
AcDbVertex
100
AcDb2dVertex
 10
-17.74138
 20
88.396155
 30
0.0
  0
VERTEX
  5
449
100
AcDbEntity
  8
EBENE_1
 62
     7
100
AcDbVertex
100
AcDb2dVertex
 10
-12.491916
 20
89.242787
 30
0.0
  0
SEQEND
  5
44A
100
AcDbEntity
  8
EBENE_1
 62
     7
  0
HATCH
  5
445
100
AcDbEntity
  8
EBENE_1
 62
     7
100
AcDbHatch
 10
0.0
 20
0.0
 30
0.0
210
0.0
220
0.0
230
1.0
  2
SOLID
 70
     1
 71
     0
 91
        1
 92
        3
 72
     0
 73
     1
 93
        3
 10
-17.741380479600693
 20
90.174168565538181
 10
-17.741380479600693
 20
88.396154785156241
 10
-12.491916232638888
 20
89.242787000868049
 97
        0
 75
     0
 76
     1
 98
        1
 10
0.0
 20
0.0
  0
LINE
  5
444
100
AcDbEntity
  8
EBENE_1
 62
     7
100
AcDbLine
 10
-27.477909
 20
94.746155
 30
0.0
 11
-27.477909
 21
95.000058
 31
0.0
  0
LINE
  5
443
100
AcDbEntity
  8
EBENE_1
 62
     7
100
AcDbLine
 10
-27.477909
 20
95.000058
 30
0.0
 11
-27.224006
 21
95.50821
 31
0.0
  0
LINE
  5
442
100
AcDbEntity
  8
EBENE_1
 62
     7
100
AcDbLine
 10
-27.224006
 20
95.50821
 30
0.0
 11
-26.96993
 21
95.762113
 31
0.0
  0
LINE
  5
441
100
AcDbEntity
  8
EBENE_1
 62
     7
100
AcDbLine
 10
-26.96993
 20
95.762113
 30
0.0
 11
-26.461951
 21
96.016189
 31
0.0
  0
LINE
  5
440
100
AcDbEntity
  8
EBENE_1
 62
     7
100
AcDbLine
 10
-26.461951
 20
96.016189
 30
0.0
 11
-25.530569
 21
96.016189
 31
0.0
  0
LINE
  5
43F
100
AcDbEntity
  8
EBENE_1
 62
     7
100
AcDbLine
 10
-25.530569
 20
96.016189
 30
0.0
 11
-25.02259
 21
95.762113
 31
0.0
  0
LINE
  5
43E
100
AcDbEntity
  8
EBENE_1
 62
     7
100
AcDbLine
 10
-25.02259
 20
95.762113
 30
0.0
 11
-24.768686
 21
95.50821
 31
0.0
  0
LINE
  5
43D
100
AcDbEntity
  8
EBENE_1
 62
     7
100
AcDbLine
 10
-24.768686
 20
95.50821
 30
0.0
 11
-24.51461
 21
95.000058
 31
0.0
  0
LINE
  5
43C
100
AcDbEntity
  8
EBENE_1
 62
     7
100
AcDbLine
 10
-24.51461
 20
95.000058
 30
0.0
 11
-24.51461
 21
94.492079
 31
0.0
  0
LINE
  5
43B
100
AcDbEntity
  8
EBENE_1
 62
     7
100
AcDbLine
 10
-24.51461
 20
94.492079
 30
0.0
 11
-24.768686
 21
94.068849
 31
0.0
  0
LINE
  5
43A
100
AcDbEntity
  8
EBENE_1
 62
     7
100
AcDbLine
 10
-24.768686
 20
94.068849
 30
0.0
 11
-25.276666
 21
93.306794
 31
0.0
  0
LINE
  5
439
100
AcDbEntity
  8
EBENE_1
 62
     7
100
AcDbLine
 10
-25.276666
 20
93.306794
 30
0.0
 11
-27.731985
 21
90.766725
 31
0.0
  0
LINE
  5
438
100
AcDbEntity
  8
EBENE_1
 62
     7
100
AcDbLine
 10
-27.731985
 20
90.766725
 30
0.0
 11
-24.260707
 21
90.766725
 31
0.0
  0
LINE
  5
437
100
AcDbEntity
  8
EBENE_1
 62
     7
100
AcDbLine
 10
-22.482693
 20
94.746155
 30
0.0
 11
-22.482693
 21
95.000058
 31
0.0
  0
LINE
  5
436
100
AcDbEntity
  8
EBENE_1
 62
     7
100
AcDbLine
 10
-22.482693
 20
95.000058
 30
0.0
 11
-22.228617
 21
95.50821
 31
0.0
  0
LINE
  5
435
100
AcDbEntity
  8
EBENE_1
 62
     7
100
AcDbLine
 10
-22.228617
 20
95.50821
 30
0.0
 11
-21.974714
 21
95.762113
 31
0.0
  0
LINE
  5
434
100
AcDbEntity
  8
EBENE_1
 62
     7
100
AcDbLine
 10
-21.974714
 20
95.762113
 30
0.0
 11
-21.466562
 21
96.016189
 31
0.0
  0
LINE
  5
433
100
AcDbEntity
  8
EBENE_1
 62
     7
100
AcDbLine
 10
-21.466562
 20
96.016189
 30
0.0
 11
-20.535353
 21
96.016189
 31
0.0
  0
LINE
  5
432
100
AcDbEntity
  8
EBENE_1
 62
     7
100
AcDbLine
 10
-20.535353
 20
96.016189
 30
0.0
 11
-20.027374
 21
95.762113
 31
0.0
  0
LINE
  5
431
100
AcDbEntity
  8
EBENE_1
 62
     7
100
AcDbLine
 10
-20.027374
 20
95.762113
 30
0.0
 11
-19.773298
 21
95.50821
 31
0.0
  0
LINE
  5
430
100
AcDbEntity
  8
EBENE_1
 62
     7
100
AcDbLine
 10
-19.773298
 20
95.50821
 30
0.0
 11
-19.519222
 21
95.000058
 31
0.0
  0
LINE
  5
42F
100
AcDbEntity
  8
EBENE_1
 62
     7
100
AcDbLine
 10
-19.519222
 20
95.000058
 30
0.0
 11
-19.519222
 21
94.492079
 31
0.0
  0
LINE
  5
42E
100
AcDbEntity
  8
EBENE_1
 62
     7
100
AcDbLine
 10
-19.519222
 20
94.492079
 30
0.0
 11
-19.773298
 21
94.068849
 31
0.0
  0
LINE
  5
42D
100
AcDbEntity
  8
EBENE_1
 62
     7
100
AcDbLine
 10
-19.773298
 20
94.068849
 30
0.0
 11
-20.281277
 21
93.306794
 31
0.0
  0
LINE
  5
42C
100
AcDbEntity
  8
EBENE_1
 62
     7
100
AcDbLine
 10
-20.281277
 20
93.306794
 30
0.0
 11
-22.736597
 21
90.766725
 31
0.0
  0
LINE
  5
42B
100
AcDbEntity
  8
EBENE_1
 62
     7
100
AcDbLine
 10
-22.736597
 20
90.766725
 30
0.0
 11
-19.265318
 21
90.766725
 31
0.0
  0
LINE
  5
42A
100
AcDbEntity
  8
EBENE_1
 62
     7
100
AcDbLine
 10
-13.761951
 20
45.385516
 30
0.0
 11
-15.031985
 21
49.957502
 31
0.0
  0
LINE
  5
429
100
AcDbEntity
  8
EBENE_1
 62
     7
100
AcDbLine
 10
-15.031985
 20
49.957502
 30
0.0
 11
-16.640672
 21
54.444739
 31
0.0
  0
LINE
  5
428
100
AcDbEntity
  8
EBENE_1
 62
     7
100
AcDbLine
 10
-16.640672
 20
54.444739
 30
0.0
 11
-18.588013
 21
58.762821
 31
0.0
  0
LINE
  5
427
100
AcDbEntity
  8
EBENE_1
 62
     7
100
AcDbLine
 10
-18.588013
 20
58.762821
 30
0.0
 11
-20.958583
 21
62.911405
 31
0.0
  0
LINE
  5
426
100
AcDbEntity
  8
EBENE_1
 62
     7
100
AcDbLine
 10
-20.958583
 20
62.911405
 30
0.0
 11
-23.583229
 21
66.890835
 31
0.0
  0
LINE
  5
425
100
AcDbEntity
  8
EBENE_1
 62
     7
100
AcDbLine
 10
-23.583229
 20
66.890835
 30
0.0
 11
-26.5467
 21
70.616189
 31
0.0
  0
LINE
  5
424
100
AcDbEntity
  8
EBENE_1
 62
     7
100
AcDbLine
 10
-26.5467
 20
70.616189
 30
0.0
 11
-29.763902
 21
74.087467
 31
0.0
  0
LINE
  5
423
100
AcDbEntity
  8
EBENE_1
 62
     7
100
AcDbLine
 10
-29.763902
 20
74.087467
 30
0.0
 11
-33.235353
 21
77.304842
 31
0.0
  0
LINE
  5
422
100
AcDbEntity
  8
EBENE_1
 62
     7
100
AcDbLine
 10
46.605252
 20
-78.651185
 30
0.0
 11
46.605252
 21
77.304842
 31
0.0
  0
LINE
  5
421
100
AcDbEntity
  8
EBENE_1
 62
     7
100
AcDbLine
 10
57.612332
 20
-78.651185
 30
0.0
 11
57.612332
 21
77.304842
 31
0.0
  0
LINE
  5
420
100
AcDbEntity
  8
EBENE_1
 62
     7
100
AcDbLine
 10
-16.386597
 20
3.390663
 30
0.0
 11
10.28361
 21
3.390663
 31
0.0
  0
LINE
  5
41F
100
AcDbEntity
  8
EBENE_1
 62
     7
100
AcDbLine
 10
-15.455215
 20
68.838175
 30
0.0
 11
10.28361
 21
68.838175
 31
0.0
  0
LINE
  5
41E
100
AcDbEntity
  8
EBENE_1
 62
     7
100
AcDbLine
 10
9.521555
 20
8.640299
 30
0.0
 11
9.521555
 21
63.588883
 31
0.0
  0
POLYLINE
  5
419
100
AcDbEntity
  8
EBENE_1
 62
     7
100
AcDb2dPolyline
 66
     1
 10
0.0
 20
0.0
 30
0.0
 70
     1
  0
VERTEX
  5
41A
100
AcDbEntity
  8
EBENE_1
 62
     7
100
AcDbVertex
100
AcDb2dVertex
 10
8.590001
 20
8.640299
 30
0.0
  0
VERTEX
  5
41B
100
AcDbEntity
  8
EBENE_1
 62
     7
100
AcDbVertex
100
AcDb2dVertex
 10
10.368015
 20
8.640299
 30
0.0
  0
VERTEX
  5
41C
100
AcDbEntity
  8
EBENE_1
 62
     7
100
AcDbVertex
100
AcDb2dVertex
 10
9.521555
 20
3.390663
 30
0.0
  0
SEQEND
  5
41D
100
AcDbEntity
  8
EBENE_1
 62
     7
  0
HATCH
  5
418
100
AcDbEntity
  8
EBENE_1
 62
     7
100
AcDbHatch
 10
0.0
 20
0.0
 30
0.0
210
0.0
220
0.0
230
1.0
  2
SOLID
 70
     1
 71
     0
 91
        1
 92
        3
 72
     0
 73
     1
 93
        3
 10
8.5900010850694439
 20
8.6402994791666661
 10
10.368014865451388
 20
8.6402994791666661
 10
9.5215549045138879
 20
3.3906629774305554
 97
        0
 75
     0
 76
     1
 98
        1
 10
0.0
 20
0.0
  0
POLYLINE
  5
413
100
AcDbEntity
  8
EBENE_1
 62
     7
100
AcDb2dPolyline
 66
     1
 10
0.0
 20
0.0
 30
0.0
 70
     1
  0
VERTEX
  5
414
100
AcDbEntity
  8
EBENE_1
 62
     7
100
AcDbVertex
100
AcDb2dVertex
 10
8.590001
 20
63.588883
 30
0.0
  0
VERTEX
  5
415
100
AcDbEntity
  8
EBENE_1
 62
     7
100
AcDbVertex
100
AcDb2dVertex
 10
10.368015
 20
63.588883
 30
0.0
  0
VERTEX
  5
416
100
AcDbEntity
  8
EBENE_1
 62
     7
100
AcDbVertex
100
AcDb2dVertex
 10
9.521555
 20
68.838175
 30
0.0
  0
SEQEND
  5
417
100
AcDbEntity
  8
EBENE_1
 62
     7
  0
HATCH
  5
412
100
AcDbEntity
  8
EBENE_1
 62
     7
100
AcDbHatch
 10
0.0
 20
0.0
 30
0.0
210
0.0
220
0.0
230
1.0
  2
SOLID
 70
     1
 71
     0
 91
        1
 92
        3
 72
     0
 73
     1
 93
        3
 10
8.5900010850694439
 20
63.588883463541663
 10
10.368014865451388
 20
63.588883463541663
 10
9.5215549045138879
 20
68.838175455729157
 97
        0
 75
     0
 76
     1
 98
        1
 10
0.0
 20
0.0
  0
LINE
  5
411
100
AcDbEntity
  8
EBENE_1
 62
     7
100
AcDbLine
 10
3.509863
 20
31.076828
 30
0.0
 11
3.002056
 21
30.822925
 31
0.0
  0
LINE
  5
410
100
AcDbEntity
  8
EBENE_1
 62
     7
100
AcDbLine
 10
3.002056
 20
30.822925
 30
0.0
 11
2.747808
 21
30.06087
 31
0.0
  0
LINE
  5
40F
100
AcDbEntity
  8
EBENE_1
 62
     7
100
AcDbLine
 10
2.747808
 20
30.06087
 30
0.0
 11
2.747808
 21
29.637467
 31
0.0
  0
LINE
  5
40E
100
AcDbEntity
  8
EBENE_1
 62
     7
100
AcDbLine
 10
2.747808
 20
29.637467
 30
0.0
 11
3.002056
 21
28.875412
 31
0.0
  0
LINE
  5
40D
100
AcDbEntity
  8
EBENE_1
 62
     7
100
AcDbLine
 10
3.002056
 20
28.875412
 30
0.0
 11
3.764111
 21
28.367605
 31
0.0
  0
LINE
  5
40C
100
AcDbEntity
  8
EBENE_1
 62
     7
100
AcDbLine
 10
3.764111
 20
28.367605
 30
0.0
 11
5.033974
 21
28.113357
 31
0.0
  0
LINE
  5
40B
100
AcDbEntity
  8
EBENE_1
 62
     7
100
AcDbLine
 10
5.033974
 20
28.113357
 30
0.0
 11
6.219431
 21
28.113357
 31
0.0
  0
LINE
  5
40A
100
AcDbEntity
  8
EBENE_1
 62
     7
100
AcDbLine
 10
6.219431
 20
28.113357
 30
0.0
 11
7.23539
 21
28.367605
 31
0.0
  0
LINE
  5
409
100
AcDbEntity
  8
EBENE_1
 62
     7
100
AcDbLine
 10
7.23539
 20
28.367605
 30
0.0
 11
7.743197
 21
28.875412
 31
0.0
  0
LINE
  5
408
100
AcDbEntity
  8
EBENE_1
 62
     7
100
AcDbLine
 10
7.743197
 20
28.875412
 30
0.0
 11
7.997445
 21
29.637467
 31
0.0
  0
LINE
  5
407
100
AcDbEntity
  8
EBENE_1
 62
     7
100
AcDbLine
 10
7.997445
 20
29.637467
 30
0.0
 11
7.997445
 21
29.891371
 31
0.0
  0
LINE
  5
406
100
AcDbEntity
  8
EBENE_1
 62
     7
100
AcDbLine
 10
7.997445
 20
29.891371
 30
0.0
 11
7.743197
 21
30.568677
 31
0.0
  0
LINE
  5
405
100
AcDbEntity
  8
EBENE_1
 62
     7
100
AcDbLine
 10
7.743197
 20
30.568677
 30
0.0
 11
7.23539
 21
31.076828
 31
0.0
  0
LINE
  5
404
100
AcDbEntity
  8
EBENE_1
 62
     7
100
AcDbLine
 10
7.23539
 20
31.076828
 30
0.0
 11
6.473334
 21
31.330732
 31
0.0
  0
LINE
  5
403
100
AcDbEntity
  8
EBENE_1
 62
     7
100
AcDbLine
 10
6.473334
 20
31.330732
 30
0.0
 11
6.219431
 21
31.330732
 31
0.0
  0
LINE
  5
402
100
AcDbEntity
  8
EBENE_1
 62
     7
100
AcDbLine
 10
6.219431
 20
31.330732
 30
0.0
 11
5.457376
 21
31.076828
 31
0.0
  0
LINE
  5
401
100
AcDbEntity
  8
EBENE_1
 62
     7
100
AcDbLine
 10
5.457376
 20
31.076828
 30
0.0
 11
5.033974
 21
30.568677
 31
0.0
  0
LINE
  5
400
100
AcDbEntity
  8
EBENE_1
 62
     7
100
AcDbLine
 10
5.033974
 20
30.568677
 30
0.0
 11
4.78007
 21
29.891371
 31
0.0
  0
LINE
  5
3FF
100
AcDbEntity
  8
EBENE_1
 62
     7
100
AcDbLine
 10
4.78007
 20
29.891371
 30
0.0
 11
4.78007
 21
29.637467
 31
0.0
  0
LINE
  5
3FE
100
AcDbEntity
  8
EBENE_1
 62
     7
100
AcDbLine
 10
4.78007
 20
29.637467
 30
0.0
 11
5.033974
 21
28.875412
 31
0.0
  0
LINE
  5
3FD
100
AcDbEntity
  8
EBENE_1
 62
     7
100
AcDbLine
 10
5.033974
 20
28.875412
 30
0.0
 11
5.457376
 21
28.367605
 31
0.0
  0
LINE
  5
3FC
100
AcDbEntity
  8
EBENE_1
 62
     7
100
AcDbLine
 10
5.457376
 20
28.367605
 30
0.0
 11
6.219431
 21
28.113357
 31
0.0
  0
LINE
  5
3FB
100
AcDbEntity
  8
EBENE_1
 62
     7
100
AcDbLine
 10
6.219431
 20
28.113357
 30
0.0
 11
6.219431
 21
28.113357
 31
0.0
  0
LINE
  5
3FA
100
AcDbEntity
  8
EBENE_1
 62
     7
100
AcDbLine
 10
2.747808
 20
36.072217
 30
0.0
 11
2.747808
 21
33.616897
 31
0.0
  0
LINE
  5
3F9
100
AcDbEntity
  8
EBENE_1
 62
     7
100
AcDbLine
 10
2.747808
 20
33.616897
 30
0.0
 11
5.033974
 21
33.362649
 31
0.0
  0
LINE
  5
3F8
100
AcDbEntity
  8
EBENE_1
 62
     7
100
AcDbLine
 10
5.033974
 20
33.362649
 30
0.0
 11
4.78007
 21
33.616897
 31
0.0
  0
LINE
  5
3F7
100
AcDbEntity
  8
EBENE_1
 62
     7
100
AcDbLine
 10
4.78007
 20
33.616897
 30
0.0
 11
4.526166
 21
34.378952
 31
0.0
  0
LINE
  5
3F6
100
AcDbEntity
  8
EBENE_1
 62
     7
100
AcDbLine
 10
4.526166
 20
34.378952
 30
0.0
 11
4.526166
 21
35.140663
 31
0.0
  0
LINE
  5
3F5
100
AcDbEntity
  8
EBENE_1
 62
     7
100
AcDbLine
 10
4.526166
 20
35.140663
 30
0.0
 11
4.78007
 21
35.818313
 31
0.0
  0
LINE
  5
3F4
100
AcDbEntity
  8
EBENE_1
 62
     7
100
AcDbLine
 10
4.78007
 20
35.818313
 30
0.0
 11
5.288222
 21
36.32612
 31
0.0
  0
LINE
  5
3F3
100
AcDbEntity
  8
EBENE_1
 62
     7
100
AcDbLine
 10
5.288222
 20
36.32612
 30
0.0
 11
5.965527
 21
36.580024
 31
0.0
  0
LINE
  5
3F2
100
AcDbEntity
  8
EBENE_1
 62
     7
100
AcDbLine
 10
5.965527
 20
36.580024
 30
0.0
 11
6.473334
 21
36.580024
 31
0.0
  0
LINE
  5
3F1
100
AcDbEntity
  8
EBENE_1
 62
     7
100
AcDbLine
 10
6.473334
 20
36.580024
 30
0.0
 11
7.23539
 21
36.32612
 31
0.0
  0
LINE
  5
3F0
100
AcDbEntity
  8
EBENE_1
 62
     7
100
AcDbLine
 10
7.23539
 20
36.32612
 30
0.0
 11
7.743197
 21
35.818313
 31
0.0
  0
LINE
  5
3EF
100
AcDbEntity
  8
EBENE_1
 62
     7
100
AcDbLine
 10
7.743197
 20
35.818313
 30
0.0
 11
7.997445
 21
35.140663
 31
0.0
  0
LINE
  5
3EE
100
AcDbEntity
  8
EBENE_1
 62
     7
100
AcDbLine
 10
7.997445
 20
35.140663
 30
0.0
 11
7.997445
 21
34.378952
 31
0.0
  0
LINE
  5
3ED
100
AcDbEntity
  8
EBENE_1
 62
     7
100
AcDbLine
 10
7.997445
 20
34.378952
 30
0.0
 11
7.743197
 21
33.616897
 31
0.0
  0
LINE
  5
3EC
100
AcDbEntity
  8
EBENE_1
 62
     7
100
AcDbLine
 10
7.743197
 20
33.616897
 30
0.0
 11
7.489638
 21
33.362649
 31
0.0
  0
LINE
  5
3EB
100
AcDbEntity
  8
EBENE_1
 62
     7
100
AcDbLine
 10
7.489638
 20
33.362649
 30
0.0
 11
6.981141
 21
33.108746
 31
0.0
  0
LINE
  5
3EA
100
AcDbEntity
  8
EBENE_1
 62
     7
100
AcDbLine
 10
6.981141
 20
33.108746
 30
0.0
 11
6.981141
 21
33.108746
 31
0.0
  0
LINE
  5
3E9
100
AcDbEntity
  8
EBENE_1
 62
     7
100
AcDbLine
 10
7.489638
 20
38.35821
 30
0.0
 11
7.743197
 21
38.104134
 31
0.0
  0
LINE
  5
3E8
100
AcDbEntity
  8
EBENE_1
 62
     7
100
AcDbLine
 10
7.743197
 20
38.104134
 30
0.0
 11
7.997445
 21
38.35821
 31
0.0
  0
LINE
  5
3E7
100
AcDbEntity
  8
EBENE_1
 62
     7
100
AcDbLine
 10
7.997445
 20
38.35821
 30
0.0
 11
7.743197
 21
38.612113
 31
0.0
  0
LINE
  5
3E6
100
AcDbEntity
  8
EBENE_1
 62
     7
100
AcDbLine
 10
2.747808
 20
43.607502
 30
0.0
 11
2.747808
 21
41.067433
 31
0.0
  0
LINE
  5
3E5
100
AcDbEntity
  8
EBENE_1
 62
     7
100
AcDbLine
 10
2.747808
 20
41.067433
 30
0.0
 11
5.033974
 21
40.813529
 31
0.0
  0
LINE
  5
3E4
100
AcDbEntity
  8
EBENE_1
 62
     7
100
AcDbLine
 10
5.033974
 20
40.813529
 30
0.0
 11
4.78007
 21
41.067433
 31
0.0
  0
LINE
  5
3E3
100
AcDbEntity
  8
EBENE_1
 62
     7
100
AcDbLine
 10
4.78007
 20
41.067433
 30
0.0
 11
4.526166
 21
41.829488
 31
0.0
  0
LINE
  5
3E2
100
AcDbEntity
  8
EBENE_1
 62
     7
100
AcDbLine
 10
4.526166
 20
41.829488
 30
0.0
 11
4.526166
 21
42.591543
 31
0.0
  0
LINE
  5
3E1
100
AcDbEntity
  8
EBENE_1
 62
     7
100
AcDbLine
 10
4.526166
 20
42.591543
 30
0.0
 11
4.78007
 21
43.353426
 31
0.0
  0
LINE
  5
3E0
100
AcDbEntity
  8
EBENE_1
 62
     7
100
AcDbLine
 10
4.78007
 20
43.353426
 30
0.0
 11
5.288222
 21
43.861405
 31
0.0
  0
LINE
  5
3DF
100
AcDbEntity
  8
EBENE_1
 62
     7
100
AcDbLine
 10
5.288222
 20
43.861405
 30
0.0
 11
5.965527
 21
44.115481
 31
0.0
  0
LINE
  5
3DE
100
AcDbEntity
  8
EBENE_1
 62
     7
100
AcDbLine
 10
5.965527
 20
44.115481
 30
0.0
 11
6.473334
 21
44.115481
 31
0.0
  0
LINE
  5
3DD
100
AcDbEntity
  8
EBENE_1
 62
     7
100
AcDbLine
 10
6.473334
 20
44.115481
 30
0.0
 11
7.23539
 21
43.861405
 31
0.0
  0
LINE
  5
3DC
100
AcDbEntity
  8
EBENE_1
 62
     7
100
AcDbLine
 10
7.23539
 20
43.861405
 30
0.0
 11
7.743197
 21
43.353426
 31
0.0
  0
LINE
  5
3DB
100
AcDbEntity
  8
EBENE_1
 62
     7
100
AcDbLine
 10
7.743197
 20
43.353426
 30
0.0
 11
7.997445
 21
42.591543
 31
0.0
  0
LINE
  5
3DA
100
AcDbEntity
  8
EBENE_1
 62
     7
100
AcDbLine
 10
7.997445
 20
42.591543
 30
0.0
 11
7.997445
 21
41.829488
 31
0.0
  0
LINE
  5
3D9
100
AcDbEntity
  8
EBENE_1
 62
     7
100
AcDbLine
 10
7.997445
 20
41.829488
 30
0.0
 11
7.743197
 21
41.067433
 31
0.0
  0
LINE
  5
3D8
100
AcDbEntity
  8
EBENE_1
 62
     7
100
AcDbLine
 10
7.743197
 20
41.067433
 30
0.0
 11
7.489638
 21
40.813529
 31
0.0
  0
LINE
  5
3D7
100
AcDbEntity
  8
EBENE_1
 62
     7
100
AcDbLine
 10
7.489638
 20
40.813529
 30
0.0
 11
6.981141
 21
40.559454
 31
0.0
  0
LINE
  5
3D6
100
AcDbEntity
  8
EBENE_1
 62
     7
100
AcDbLine
 10
6.981141
 20
40.559454
 30
0.0
 11
6.981141
 21
40.559454
 31
0.0
  0
LINE
  5
3D5
100
AcDbEntity
  8
EBENE_1
 62
     7
100
AcDbLine
 10
-34.589964
 20
3.390663
 30
0.0
 11
-67.694576
 21
3.390663
 31
0.0
  0
LINE
  5
3D4
100
AcDbEntity
  8
EBENE_1
 62
     7
100
AcDbLine
 10
-36.029325
 20
77.304842
 30
0.0
 11
-67.694576
 21
77.304842
 31
0.0
  0
LINE
  5
3D3
100
AcDbEntity
  8
EBENE_1
 62
     7
100
AcDbLine
 10
-66.932693
 20
8.640299
 30
0.0
 11
-66.932693
 21
72.05555
 31
0.0
  0
POLYLINE
  5
3CE
100
AcDbEntity
  8
EBENE_1
 62
     7
100
AcDb2dPolyline
 66
     1
 10
0.0
 20
0.0
 30
0.0
 70
     1
  0
VERTEX
  5
3CF
100
AcDbEntity
  8
EBENE_1
 62
     7
100
AcDbVertex
100
AcDb2dVertex
 10
-67.779325
 20
8.640299
 30
0.0
  0
VERTEX
  5
3D0
100
AcDbEntity
  8
EBENE_1
 62
     7
100
AcDbVertex
100
AcDb2dVertex
 10
-66.001312
 20
8.640299
 30
0.0
  0
VERTEX
  5
3D1
100
AcDbEntity
  8
EBENE_1
 62
     7
100
AcDbVertex
100
AcDb2dVertex
 10
-66.932693
 20
3.390663
 30
0.0
  0
SEQEND
  5
3D2
100
AcDbEntity
  8
EBENE_1
 62
     7
  0
HATCH
  5
3CD
100
AcDbEntity
  8
EBENE_1
 62
     7
100
AcDbHatch
 10
0.0
 20
0.0
 30
0.0
210
0.0
220
0.0
230
1.0
  2
SOLID
 70
     1
 71
     0
 91
        1
 92
        3
 72
     0
 73
     1
 93
        3
 10
-67.77932535807291
 20
8.6402994791666661
 10
-66.00131157769097
 20
8.6402994791666661
 10
-66.932693142361103
 20
3.3906629774305554
 97
        0
 75
     0
 76
     1
 98
        1
 10
0.0
 20
0.0
  0
POLYLINE
  5
3C8
100
AcDbEntity
  8
EBENE_1
 62
     7
100
AcDb2dPolyline
 66
     1
 10
0.0
 20
0.0
 30
0.0
 70
     1
  0
VERTEX
  5
3C9
100
AcDbEntity
  8
EBENE_1
 62
     7
100
AcDbVertex
100
AcDb2dVertex
 10
-67.779325
 20
72.05555
 30
0.0
  0
VERTEX
  5
3CA
100
AcDbEntity
  8
EBENE_1
 62
     7
100
AcDbVertex
100
AcDb2dVertex
 10
-66.001312
 20
72.05555
 30
0.0
  0
VERTEX
  5
3CB
100
AcDbEntity
  8
EBENE_1
 62
     7
100
AcDbVertex
100
AcDb2dVertex
 10
-66.932693
 20
77.304842
 30
0.0
  0
SEQEND
  5
3CC
100
AcDbEntity
  8
EBENE_1
 62
     7
  0
HATCH
  5
3C7
100
AcDbEntity
  8
EBENE_1
 62
     7
100
AcDbHatch
 10
0.0
 20
0.0
 30
0.0
210
0.0
220
0.0
230
1.0
  2
SOLID
 70
     1
 71
     0
 91
        1
 92
        3
 72
     0
 73
     1
 93
        3
 10
-67.77932535807291
 20
72.055550130208331
 10
-66.00131157769097
 20
72.055550130208331
 10
-66.932693142361103
 20
77.304842122395826
 97
        0
 75
     0
 76
     1
 98
        1
 10
0.0
 20
0.0
  0
LINE
  5
3C6
100
AcDbEntity
  8
EBENE_1
 62
     7
100
AcDbLine
 10
-73.621346
 20
35.987467
 30
0.0
 11
-73.621346
 21
39.458746
 31
0.0
  0
LINE
  5
3C5
100
AcDbEntity
  8
EBENE_1
 62
     7
100
AcDbLine
 10
-73.621346
 20
39.458746
 30
0.0
 11
-68.371882
 21
37.003426
 31
0.0
  0
LINE
  5
3C4
100
AcDbEntity
  8
EBENE_1
 62
     7
100
AcDbLine
 10
-68.371882
 20
37.003426
 30
0.0
 11
-68.371882
 21
37.003426
 31
0.0
  0
LINE
  5
3C3
100
AcDbEntity
  8
EBENE_1
 62
     7
100
AcDbLine
 10
-73.621346
 20
43.438175
 30
0.0
 11
-70.149896
 21
40.982856
 31
0.0
  0
LINE
  5
3C2
100
AcDbEntity
  8
EBENE_1
 62
     7
100
AcDbLine
 10
-70.149896
 20
40.982856
 30
0.0
 11
-70.149896
 21
44.70821
 31
0.0
  0
LINE
  5
3C1
100
AcDbEntity
  8
EBENE_1
 62
     7
100
AcDbLine
 10
-73.621346
 20
43.438175
 30
0.0
 11
-68.371882
 21
43.438175
 31
0.0
  0
LINE
  5
3C0
100
AcDbEntity
  8
EBENE_1
 62
     7
100
AcDbLine
 10
-33.235353
 20
77.304842
 30
0.0
 11
-33.235353
 21
-78.651185
 31
0.0
  0
LINE
  5
3BF
100
AcDbEntity
  8
EBENE_1
 62
     7
100
AcDbLine
 10
-34.505215
 20
77.304842
 30
0.0
 11
-34.505215
 21
-78.651185
 31
0.0
  0
LINE
  5
3BE
100
AcDbEntity
  8
EBENE_1
 62
     7
100
AcDbLine
 10
-26.96993
 20
22.864065
 30
0.0
 11
-45.850604
 21
22.864065
 31
0.0
  0
LINE
  5
3BD
100
AcDbEntity
  8
EBENE_1
 62
     7
100
AcDbLine
 10
-26.96993
 20
26.843495
 30
0.0
 11
-45.850604
 21
26.843495
 31
0.0
  0
LINE
  5
3BC
100
AcDbEntity
  8
EBENE_1
 62
     7
100
AcDbLine
 10
-45.088548
 20
17.614773
 30
0.0
 11
-45.088548
 21
12.365481
 31
0.0
  0
LINE
  5
3BB
100
AcDbEntity
  8
EBENE_1
 62
     7
100
AcDbLine
 10
-45.088548
 20
32.092787
 30
0.0
 11
-45.088548
 21
37.342079
 31
0.0
  0
LINE
  5
3BA
100
AcDbEntity
  8
EBENE_1
 62
     7
100
AcDbLine
 10
-45.088548
 20
22.864065
 30
0.0
 11
-45.088548
 21
26.843495
 31
0.0
  0
POLYLINE
  5
3B5
100
AcDbEntity
  8
EBENE_1
 62
     7
100
AcDb2dPolyline
 66
     1
 10
0.0
 20
0.0
 30
0.0
 70
     1
  0
VERTEX
  5
3B6
100
AcDbEntity
  8
EBENE_1
 62
     7
100
AcDbVertex
100
AcDb2dVertex
 10
-45.935353
 20
17.614773
 30
0.0
  0
VERTEX
  5
3B7
100
AcDbEntity
  8
EBENE_1
 62
     7
100
AcDbVertex
100
AcDb2dVertex
 10
-44.241916
 20
17.614773
 30
0.0
  0
VERTEX
  5
3B8
100
AcDbEntity
  8
EBENE_1
 62
     7
100
AcDbVertex
100
AcDb2dVertex
 10
-45.088548
 20
22.864065
 30
0.0
  0
SEQEND
  5
3B9
100
AcDbEntity
  8
EBENE_1
 62
     7
  0
HATCH
  5
3B4
100
AcDbEntity
  8
EBENE_1
 62
     7
100
AcDbHatch
 10
0.0
 20
0.0
 30
0.0
210
0.0
220
0.0
230
1.0
  2
SOLID
 70
     1
 71
     0
 91
        1
 92
        3
 72
     0
 73
     1
 93
        3
 10
-45.935352918836799
 20
17.614773220486111
 10
-44.241916232638886
 20
17.614773220486111
 10
-45.088548448350693
 20
22.864065212673609
 97
        0
 75
     0
 76
     1
 98
        1
 10
0.0
 20
0.0
  0
POLYLINE
  5
3AF
100
AcDbEntity
  8
EBENE_1
 62
     7
100
AcDb2dPolyline
 66
     1
 10
0.0
 20
0.0
 30
0.0
 70
     1
  0
VERTEX
  5
3B0
100
AcDbEntity
  8
EBENE_1
 62
     7
100
AcDbVertex
100
AcDb2dVertex
 10
-45.935353
 20
32.092787
 30
0.0
  0
VERTEX
  5
3B1
100
AcDbEntity
  8
EBENE_1
 62
     7
100
AcDbVertex
100
AcDb2dVertex
 10
-44.241916
 20
32.092787
 30
0.0
  0
VERTEX
  5
3B2
100
AcDbEntity
  8
EBENE_1
 62
     7
100
AcDbVertex
100
AcDb2dVertex
 10
-45.088548
 20
26.843495
 30
0.0
  0
SEQEND
  5
3B3
100
AcDbEntity
  8
EBENE_1
 62
     7
  0
HATCH
  5
3AE
100
AcDbEntity
  8
EBENE_1
 62
     7
100
AcDbHatch
 10
0.0
 20
0.0
 30
0.0
210
0.0
220
0.0
230
1.0
  2
SOLID
 70
     1
 71
     0
 91
        1
 92
        3
 72
     0
 73
     1
 93
        3
 10
-45.935352918836799
 20
32.09278700086805
 10
-44.241916232638886
 20
32.09278700086805
 10
-45.088548448350693
 20
26.843495008680552
 97
        0
 75
     0
 76
     1
 98
        1
 10
0.0
 20
0.0
  0
LINE
  5
3AD
100
AcDbEntity
  8
EBENE_1
 62
     7
100
AcDbLine
 10
-46.612659
 20
19.985343
 30
0.0
 11
-51.861951
 21
19.985343
 31
0.0
  0
LINE
  5
3AC
100
AcDbEntity
  8
EBENE_1
 62
     7
100
AcDbLine
 10
-51.861951
 20
19.985343
 30
0.0
 11
-46.612659
 21
22.017605
 31
0.0
  0
LINE
  5
3AB
100
AcDbEntity
  8
EBENE_1
 62
     7
100
AcDbLine
 10
-46.612659
 20
22.017605
 30
0.0
 11
-51.861951
 21
23.964773
 31
0.0
  0
LINE
  5
3AA
100
AcDbEntity
  8
EBENE_1
 62
     7
100
AcDbLine
 10
-51.861951
 20
23.964773
 30
0.0
 11
-46.612659
 21
23.964773
 31
0.0
  0
LINE
  5
3A9
100
AcDbEntity
  8
EBENE_1
 62
     7
100
AcDbLine
 10
-46.612659
 20
23.964773
 30
0.0
 11
-46.612659
 21
23.964773
 31
0.0
  0
LINE
  5
3A8
100
AcDbEntity
  8
EBENE_1
 62
     7
100
AcDbLine
 10
-51.861951
 20
28.45201
 30
0.0
 11
-48.305923
 21
25.996691
 31
0.0
  0
LINE
  5
3A7
100
AcDbEntity
  8
EBENE_1
 62
     7
100
AcDbLine
 10
-48.305923
 20
25.996691
 30
0.0
 11
-48.305923
 21
29.722217
 31
0.0
  0
LINE
  5
3A6
100
AcDbEntity
  8
EBENE_1
 62
     7
100
AcDbLine
 10
-51.861951
 20
28.45201
 30
0.0
 11
-46.612659
 21
28.45201
 31
0.0
  0
LINE
  5
3A5
100
AcDbEntity
  8
EBENE_1
 62
     7
100
AcDbLine
 10
-36.029325
 20
-78.651185
 30
0.0
 11
-67.694576
 21
-78.651185
 31
0.0
  0
LINE
  5
3A4
100
AcDbEntity
  8
EBENE_1
 62
     7
100
AcDbLine
 10
-34.589964
 20
3.390663
 30
0.0
 11
-67.694576
 21
3.390663
 31
0.0
  0
LINE
  5
3A3
100
AcDbEntity
  8
EBENE_1
 62
     7
100
AcDbLine
 10
-66.932693
 20
-73.401893
 30
0.0
 11
-66.932693
 21
-1.858629
 31
0.0
  0
POLYLINE
  5
39E
100
AcDbEntity
  8
EBENE_1
 62
     7
100
AcDb2dPolyline
 66
     1
 10
0.0
 20
0.0
 30
0.0
 70
     1
  0
VERTEX
  5
39F
100
AcDbEntity
  8
EBENE_1
 62
     7
100
AcDbVertex
100
AcDb2dVertex
 10
-67.779325
 20
-73.401893
 30
0.0
  0
VERTEX
  5
3A0
100
AcDbEntity
  8
EBENE_1
 62
     7
100
AcDbVertex
100
AcDb2dVertex
 10
-66.001312
 20
-73.401893
 30
0.0
  0
VERTEX
  5
3A1
100
AcDbEntity
  8
EBENE_1
 62
     7
100
AcDbVertex
100
AcDb2dVertex
 10
-66.932693
 20
-78.651185
 30
0.0
  0
SEQEND
  5
3A2
100
AcDbEntity
  8
EBENE_1
 62
     7
  0
HATCH
  5
39D
100
AcDbEntity
  8
EBENE_1
 62
     7
100
AcDbHatch
 10
0.0
 20
0.0
 30
0.0
210
0.0
220
0.0
230
1.0
  2
SOLID
 70
     1
 71
     0
 91
        1
 92
        3
 72
     0
 73
     1
 93
        3
 10
-67.77932535807291
 20
-73.401893446180551
 10
-66.00131157769097
 20
-73.401893446180551
 10
-66.932693142361103
 20
-78.651185438368046
 97
        0
 75
     0
 76
     1
 98
        1
 10
0.0
 20
0.0
  0
POLYLINE
  5
398
100
AcDbEntity
  8
EBENE_1
 62
     7
100
AcDb2dPolyline
 66
     1
 10
0.0
 20
0.0
 30
0.0
 70
     1
  0
VERTEX
  5
399
100
AcDbEntity
  8
EBENE_1
 62
     7
100
AcDbVertex
100
AcDb2dVertex
 10
-67.779325
 20
-1.858629
 30
0.0
  0
VERTEX
  5
39A
100
AcDbEntity
  8
EBENE_1
 62
     7
100
AcDbVertex
100
AcDb2dVertex
 10
-66.001312
 20
-1.858629
 30
0.0
  0
VERTEX
  5
39B
100
AcDbEntity
  8
EBENE_1
 62
     7
100
AcDbVertex
100
AcDb2dVertex
 10
-66.932693
 20
3.390663
 30
0.0
  0
SEQEND
  5
39C
100
AcDbEntity
  8
EBENE_1
 62
     7
  0
HATCH
  5
397
100
AcDbEntity
  8
EBENE_1
 62
     7
100
AcDbHatch
 10
0.0
 20
0.0
 30
0.0
210
0.0
220
0.0
230
1.0
  2
SOLID
 70
     1
 71
     0
 91
        1
 92
        3
 72
     0
 73
     1
 93
        3
 10
-67.77932535807291
 20
-1.8586290147569442
 10
-66.00131157769097
 20
-1.8586290147569442
 10
-66.932693142361103
 20
3.3906629774305554
 97
        0
 75
     0
 76
     1
 98
        1
 10
0.0
 20
0.0
  0
LINE
  5
396
100
AcDbEntity
  8
EBENE_1
 62
     7
100
AcDbLine
 10
-73.621346
 20
-40.635935
 30
0.0
 11
-73.36727
 21
-41.39799
 31
0.0
  0
LINE
  5
395
100
AcDbEntity
  8
EBENE_1
 62
     7
100
AcDbLine
 10
-73.36727
 20
-41.39799
 30
0.0
 11
-72.943868
 21
-41.651893
 31
0.0
  0
LINE
  5
394
100
AcDbEntity
  8
EBENE_1
 62
     7
100
AcDbLine
 10
-72.943868
 20
-41.651893
 30
0.0
 11
-72.435889
 21
-41.651893
 31
0.0
  0
LINE
  5
393
100
AcDbEntity
  8
EBENE_1
 62
     7
100
AcDbLine
 10
-72.435889
 20
-41.651893
 30
0.0
 11
-71.927909
 21
-41.39799
 31
0.0
  0
LINE
  5
392
100
AcDbEntity
  8
EBENE_1
 62
     7
100
AcDbLine
 10
-71.927909
 20
-41.39799
 30
0.0
 11
-71.674006
 21
-40.889838
 31
0.0
  0
LINE
  5
391
100
AcDbEntity
  8
EBENE_1
 62
     7
100
AcDbLine
 10
-71.674006
 20
-40.889838
 30
0.0
 11
-71.41993
 21
-39.87388
 31
0.0
  0
LINE
  5
390
100
AcDbEntity
  8
EBENE_1
 62
     7
100
AcDbLine
 10
-71.41993
 20
-39.87388
 30
0.0
 11
-71.166026
 21
-39.111825
 31
0.0
  0
LINE
  5
38F
100
AcDbEntity
  8
EBENE_1
 62
     7
100
AcDbLine
 10
-71.166026
 20
-39.111825
 30
0.0
 11
-70.657875
 21
-38.604017
 31
0.0
  0
LINE
  5
38E
100
AcDbEntity
  8
EBENE_1
 62
     7
100
AcDbLine
 10
-70.657875
 20
-38.604017
 30
0.0
 11
-70.149896
 21
-38.349769
 31
0.0
  0
LINE
  5
38D
100
AcDbEntity
  8
EBENE_1
 62
     7
100
AcDbLine
 10
-70.149896
 20
-38.349769
 30
0.0
 11
-69.388013
 21
-38.349769
 31
0.0
  0
LINE
  5
38C
100
AcDbEntity
  8
EBENE_1
 62
     7
100
AcDbLine
 10
-69.388013
 20
-38.349769
 30
0.0
 11
-68.880033
 21
-38.604017
 31
0.0
  0
LINE
  5
38B
100
AcDbEntity
  8
EBENE_1
 62
     7
100
AcDbLine
 10
-68.880033
 20
-38.604017
 30
0.0
 11
-68.625958
 21
-38.857921
 31
0.0
  0
LINE
  5
38A
100
AcDbEntity
  8
EBENE_1
 62
     7
100
AcDbLine
 10
-68.625958
 20
-38.857921
 30
0.0
 11
-68.371882
 21
-39.619976
 31
0.0
  0
LINE
  5
389
100
AcDbEntity
  8
EBENE_1
 62
     7
100
AcDbLine
 10
-68.371882
 20
-39.619976
 30
0.0
 11
-68.371882
 21
-40.635935
 31
0.0
  0
LINE
  5
388
100
AcDbEntity
  8
EBENE_1
 62
     7
100
AcDbLine
 10
-68.371882
 20
-40.635935
 30
0.0
 11
-68.625958
 21
-41.39799
 31
0.0
  0
LINE
  5
387
100
AcDbEntity
  8
EBENE_1
 62
     7
100
AcDbLine
 10
-68.625958
 20
-41.39799
 30
0.0
 11
-68.880033
 21
-41.651893
 31
0.0
  0
LINE
  5
386
100
AcDbEntity
  8
EBENE_1
 62
     7
100
AcDbLine
 10
-68.880033
 20
-41.651893
 30
0.0
 11
-69.388013
 21
-41.905797
 31
0.0
  0
LINE
  5
385
100
AcDbEntity
  8
EBENE_1
 62
     7
100
AcDbLine
 10
-69.388013
 20
-41.905797
 30
0.0
 11
-70.149896
 21
-41.905797
 31
0.0
  0
LINE
  5
384
100
AcDbEntity
  8
EBENE_1
 62
     7
100
AcDbLine
 10
-70.149896
 20
-41.905797
 30
0.0
 11
-70.657875
 21
-41.651893
 31
0.0
  0
LINE
  5
383
100
AcDbEntity
  8
EBENE_1
 62
     7
100
AcDbLine
 10
-70.657875
 20
-41.651893
 30
0.0
 11
-71.166026
 21
-41.143742
 31
0.0
  0
LINE
  5
382
100
AcDbEntity
  8
EBENE_1
 62
     7
100
AcDbLine
 10
-71.166026
 20
-41.143742
 30
0.0
 11
-71.41993
 21
-40.381687
 31
0.0
  0
LINE
  5
381
100
AcDbEntity
  8
EBENE_1
 62
     7
100
AcDbLine
 10
-71.41993
 20
-40.381687
 30
0.0
 11
-71.674006
 21
-39.365728
 31
0.0
  0
LINE
  5
380
100
AcDbEntity
  8
EBENE_1
 62
     7
100
AcDbLine
 10
-71.674006
 20
-39.365728
 30
0.0
 11
-71.927909
 21
-38.857921
 31
0.0
  0
LINE
  5
37F
100
AcDbEntity
  8
EBENE_1
 62
     7
100
AcDbLine
 10
-71.927909
 20
-38.857921
 30
0.0
 11
-72.435889
 21
-38.604017
 31
0.0
  0
LINE
  5
37E
100
AcDbEntity
  8
EBENE_1
 62
     7
100
AcDbLine
 10
-72.435889
 20
-38.604017
 30
0.0
 11
-72.943868
 21
-38.604017
 31
0.0
  0
LINE
  5
37D
100
AcDbEntity
  8
EBENE_1
 62
     7
100
AcDbLine
 10
-72.943868
 20
-38.604017
 30
0.0
 11
-73.36727
 21
-38.857921
 31
0.0
  0
LINE
  5
37C
100
AcDbEntity
  8
EBENE_1
 62
     7
100
AcDbLine
 10
-73.36727
 20
-38.857921
 30
0.0
 11
-73.621346
 21
-39.619976
 31
0.0
  0
LINE
  5
37B
100
AcDbEntity
  8
EBENE_1
 62
     7
100
AcDbLine
 10
-73.621346
 20
-39.619976
 30
0.0
 11
-73.621346
 21
-40.635935
 31
0.0
  0
LINE
  5
37A
100
AcDbEntity
  8
EBENE_1
 62
     7
100
AcDbLine
 10
-72.435889
 20
-36.656505
 30
0.0
 11
-72.689964
 21
-36.656505
 31
0.0
  0
LINE
  5
379
100
AcDbEntity
  8
EBENE_1
 62
     7
100
AcDbLine
 10
-72.689964
 20
-36.656505
 30
0.0
 11
-73.197944
 21
-36.402601
 31
0.0
  0
LINE
  5
378
100
AcDbEntity
  8
EBENE_1
 62
     7
100
AcDbLine
 10
-73.197944
 20
-36.402601
 30
0.0
 11
-73.36727
 21
-36.148353
 31
0.0
  0
LINE
  5
377
100
AcDbEntity
  8
EBENE_1
 62
     7
100
AcDbLine
 10
-73.36727
 20
-36.148353
 30
0.0
 11
-73.621346
 21
-35.640546
 31
0.0
  0
LINE
  5
376
100
AcDbEntity
  8
EBENE_1
 62
     7
100
AcDbLine
 10
-73.621346
 20
-35.640546
 30
0.0
 11
-73.621346
 21
-34.624588
 31
0.0
  0
LINE
  5
375
100
AcDbEntity
  8
EBENE_1
 62
     7
100
AcDbLine
 10
-73.621346
 20
-34.624588
 30
0.0
 11
-73.36727
 21
-34.116436
 31
0.0
  0
LINE
  5
374
100
AcDbEntity
  8
EBENE_1
 62
     7
100
AcDbLine
 10
-73.36727
 20
-34.116436
 30
0.0
 11
-73.197944
 21
-33.862533
 31
0.0
  0
LINE
  5
373
100
AcDbEntity
  8
EBENE_1
 62
     7
100
AcDbLine
 10
-73.197944
 20
-33.862533
 30
0.0
 11
-72.689964
 21
-33.608629
 31
0.0
  0
LINE
  5
372
100
AcDbEntity
  8
EBENE_1
 62
     7
100
AcDbLine
 10
-72.689964
 20
-33.608629
 30
0.0
 11
-72.181985
 21
-33.608629
 31
0.0
  0
LINE
  5
371
100
AcDbEntity
  8
EBENE_1
 62
     7
100
AcDbLine
 10
-72.181985
 20
-33.608629
 30
0.0
 11
-71.674006
 21
-33.862533
 31
0.0
  0
LINE
  5
370
100
AcDbEntity
  8
EBENE_1
 62
     7
100
AcDbLine
 10
-71.674006
 20
-33.862533
 30
0.0
 11
-70.911951
 21
-34.370684
 31
0.0
  0
LINE
  5
36F
100
AcDbEntity
  8
EBENE_1
 62
     7
100
AcDbLine
 10
-70.911951
 20
-34.370684
 30
0.0
 11
-68.371882
 21
-36.910409
 31
0.0
  0
LINE
  5
36E
100
AcDbEntity
  8
EBENE_1
 62
     7
100
AcDbLine
 10
-68.371882
 20
-36.910409
 30
0.0
 11
-68.371882
 21
-33.354381
 31
0.0
  0
LINE
  5
36D
100
AcDbEntity
  8
EBENE_1
 62
     7
100
AcDbLine
 10
-36.029325
 20
-78.651185
 30
0.0
 11
-56.095284
 21
-78.651185
 31
0.0
  0
LINE
  5
36C
100
AcDbEntity
  8
EBENE_1
 62
     7
100
AcDbLine
 10
-45.003971
 20
-5.66856
 30
0.0
 11
-56.095284
 21
-5.66856
 31
0.0
  0
LINE
  5
36B
100
AcDbEntity
  8
EBENE_1
 62
     7
100
AcDbLine
 10
-55.333229
 20
-73.401893
 30
0.0
 11
-55.333229
 21
-10.917852
 31
0.0
  0
POLYLINE
  5
366
100
AcDbEntity
  8
EBENE_1
 62
     7
100
AcDb2dPolyline
 66
     1
 10
0.0
 20
0.0
 30
0.0
 70
     1
  0
VERTEX
  5
367
100
AcDbEntity
  8
EBENE_1
 62
     7
100
AcDbVertex
100
AcDb2dVertex
 10
-56.180033
 20
-73.401893
 30
0.0
  0
VERTEX
  5
368
100
AcDbEntity
  8
EBENE_1
 62
     7
100
AcDbVertex
100
AcDb2dVertex
 10
-54.486597
 20
-73.401893
 30
0.0
  0
VERTEX
  5
369
100
AcDbEntity
  8
EBENE_1
 62
     7
100
AcDbVertex
100
AcDb2dVertex
 10
-55.333229
 20
-78.651185
 30
0.0
  0
SEQEND
  5
36A
100
AcDbEntity
  8
EBENE_1
 62
     7
  0
HATCH
  5
365
100
AcDbEntity
  8
EBENE_1
 62
     7
100
AcDbHatch
 10
0.0
 20
0.0
 30
0.0
210
0.0
220
0.0
230
1.0
  2
SOLID
 70
     1
 71
     0
 91
        1
 92
        3
 72
     0
 73
     1
 93
        3
 10
-56.180033365885414
 20
-73.401893446180551
 10
-54.486596679687494
 20
-73.401893446180551
 10
-55.333228895399301
 20
-78.651185438368046
 97
        0
 75
     0
 76
     1
 98
        1
 10
0.0
 20
0.0
  0
POLYLINE
  5
360
100
AcDbEntity
  8
EBENE_1
 62
     7
100
AcDb2dPolyline
 66
     1
 10
0.0
 20
0.0
 30
0.0
 70
     1
  0
VERTEX
  5
361
100
AcDbEntity
  8
EBENE_1
 62
     7
100
AcDbVertex
100
AcDb2dVertex
 10
-56.180033
 20
-10.917852
 30
0.0
  0
VERTEX
  5
362
100
AcDbEntity
  8
EBENE_1
 62
     7
100
AcDbVertex
100
AcDb2dVertex
 10
-54.486597
 20
-10.917852
 30
0.0
  0
VERTEX
  5
363
100
AcDbEntity
  8
EBENE_1
 62
     7
100
AcDbVertex
100
AcDb2dVertex
 10
-55.333229
 20
-5.66856
 30
0.0
  0
SEQEND
  5
364
100
AcDbEntity
  8
EBENE_1
 62
     7
  0
HATCH
  5
35F
100
AcDbEntity
  8
EBENE_1
 62
     7
100
AcDbHatch
 10
0.0
 20
0.0
 30
0.0
210
0.0
220
0.0
230
1.0
  2
SOLID
 70
     1
 71
     0
 91
        1
 92
        3
 72
     0
 73
     1
 93
        3
 10
-56.180033365885414
 20
-10.91785210503472
 10
-54.486596679687494
 20
-10.91785210503472
 10
-55.333228895399301
 20
-5.6685601128472216
 97
        0
 75
     0
 76
     1
 98
        1
 10
0.0
 20
0.0
  0
LINE
  5
35E
100
AcDbEntity
  8
EBENE_1
 62
     7
100
AcDbLine
 10
-62.106631
 20
-46.393034
 30
0.0
 11
-62.106631
 21
-42.921756
 31
0.0
  0
LINE
  5
35D
100
AcDbEntity
  8
EBENE_1
 62
     7
100
AcDbLine
 10
-62.106631
 20
-42.921756
 30
0.0
 11
-56.857339
 21
-45.377075
 31
0.0
  0
LINE
  5
35C
100
AcDbEntity
  8
EBENE_1
 62
     7
100
AcDbLine
 10
-56.857339
 20
-45.377075
 30
0.0
 11
-56.857339
 21
-45.377075
 31
0.0
  0
LINE
  5
35B
100
AcDbEntity
  8
EBENE_1
 62
     7
100
AcDbLine
 10
-62.106631
 20
-40.889838
 30
0.0
 11
-62.106631
 21
-38.180615
 31
0.0
  0
LINE
  5
35A
100
AcDbEntity
  8
EBENE_1
 62
     7
100
AcDbLine
 10
-62.106631
 20
-38.180615
 30
0.0
 11
-60.074542
 21
-39.619976
 31
0.0
  0
LINE
  5
359
100
AcDbEntity
  8
EBENE_1
 62
     7
100
AcDbLine
 10
-60.074542
 20
-39.619976
 30
0.0
 11
-60.074542
 21
-38.857921
 31
0.0
  0
LINE
  5
358
100
AcDbEntity
  8
EBENE_1
 62
     7
100
AcDbLine
 10
-60.074542
 20
-38.857921
 30
0.0
 11
-59.820638
 21
-38.349769
 31
0.0
  0
LINE
  5
357
100
AcDbEntity
  8
EBENE_1
 62
     7
100
AcDbLine
 10
-59.820638
 20
-38.349769
 30
0.0
 11
-59.566562
 21
-38.180615
 31
0.0
  0
LINE
  5
356
100
AcDbEntity
  8
EBENE_1
 62
     7
100
AcDbLine
 10
-59.566562
 20
-38.180615
 30
0.0
 11
-58.804679
 21
-37.926367
 31
0.0
  0
LINE
  5
355
100
AcDbEntity
  8
EBENE_1
 62
     7
100
AcDbLine
 10
-58.804679
 20
-37.926367
 30
0.0
 11
-58.2967
 21
-37.926367
 31
0.0
  0
LINE
  5
354
100
AcDbEntity
  8
EBENE_1
 62
     7
100
AcDbLine
 10
-58.2967
 20
-37.926367
 30
0.0
 11
-57.619222
 21
-38.180615
 31
0.0
  0
LINE
  5
353
100
AcDbEntity
  8
EBENE_1
 62
     7
100
AcDbLine
 10
-57.619222
 20
-38.180615
 30
0.0
 11
-57.111243
 21
-38.604017
 31
0.0
  0
LINE
  5
352
100
AcDbEntity
  8
EBENE_1
 62
     7
100
AcDbLine
 10
-57.111243
 20
-38.604017
 30
0.0
 11
-56.857339
 21
-39.365728
 31
0.0
  0
LINE
  5
351
100
AcDbEntity
  8
EBENE_1
 62
     7
100
AcDbLine
 10
-56.857339
 20
-39.365728
 30
0.0
 11
-56.857339
 21
-40.127783
 31
0.0
  0
LINE
  5
350
100
AcDbEntity
  8
EBENE_1
 62
     7
100
AcDbLine
 10
-56.857339
 20
-40.127783
 30
0.0
 11
-57.111243
 21
-40.889838
 31
0.0
  0
LINE
  5
34F
100
AcDbEntity
  8
EBENE_1
 62
     7
100
AcDbLine
 10
-57.111243
 20
-40.889838
 30
0.0
 11
-57.365318
 21
-41.143742
 31
0.0
  0
LINE
  5
34E
100
AcDbEntity
  8
EBENE_1
 62
     7
100
AcDbLine
 10
-57.365318
 20
-41.143742
 30
0.0
 11
-57.873298
 21
-41.39799
 31
0.0
  0
LINE
  5
34D
100
AcDbEntity
  8
EBENE_1
 62
     7
100
AcDbLine
 10
-43.480033
 20
-7.107921
 30
0.0
 11
-43.480033
 21
-13.965728
 31
0.0
  0
LINE
  5
34C
100
AcDbEntity
  8
EBENE_1
 62
     7
100
AcDbLine
 10
-34.505215
 20
-14.38913
 30
0.0
 11
-34.505215
 21
-12.441962
 31
0.0
  0
LINE
  5
34B
100
AcDbEntity
  8
EBENE_1
 62
     7
100
AcDbLine
 10
-48.729325
 20
-13.204017
 30
0.0
 11
-53.978617
 21
-13.204017
 31
0.0
  0
LINE
  5
34A
100
AcDbEntity
  8
EBENE_1
 62
     7
100
AcDbLine
 10
-29.255923
 20
-13.204017
 30
0.0
 11
-24.006631
 21
-13.204017
 31
0.0
  0
LINE
  5
349
100
AcDbEntity
  8
EBENE_1
 62
     7
100
AcDbLine
 10
-43.480033
 20
-13.204017
 30
0.0
 11
-34.505215
 21
-13.204017
 31
0.0
  0
POLYLINE
  5
344
100
AcDbEntity
  8
EBENE_1
 62
     7
100
AcDb2dPolyline
 66
     1
 10
0.0
 20
0.0
 30
0.0
 70
     1
  0
VERTEX
  5
345
100
AcDbEntity
  8
EBENE_1
 62
     7
100
AcDbVertex
100
AcDb2dVertex
 10
-48.729325
 20
-12.357213
 30
0.0
  0
VERTEX
  5
346
100
AcDbEntity
  8
EBENE_1
 62
     7
100
AcDbVertex
100
AcDb2dVertex
 10
-48.729325
 20
-14.135227
 30
0.0
  0
VERTEX
  5
347
100
AcDbEntity
  8
EBENE_1
 62
     7
100
AcDbVertex
100
AcDb2dVertex
 10
-43.480033
 20
-13.204017
 30
0.0
  0
SEQEND
  5
348
100
AcDbEntity
  8
EBENE_1
 62
     7
  0
HATCH
  5
343
100
AcDbEntity
  8
EBENE_1
 62
     7
100
AcDbHatch
 10
0.0
 20
0.0
 30
0.0
210
0.0
220
0.0
230
1.0
  2
SOLID
 70
     1
 71
     0
 91
        1
 92
        3
 72
     0
 73
     1
 93
        3
 10
-48.729325358072913
 20
-12.357212999131944
 10
-48.729325358072913
 20
-14.135226779513888
 10
-43.480033365885411
 20
-13.204017469618055
 97
        0
 75
     0
 76
     1
 98
        1
 10
0.0
 20
0.0
  0
POLYLINE
  5
33E
100
AcDbEntity
  8
EBENE_1
 62
     7
100
AcDb2dPolyline
 66
     1
 10
0.0
 20
0.0
 30
0.0
 70
     1
  0
VERTEX
  5
33F
100
AcDbEntity
  8
EBENE_1
 62
     7
100
AcDbVertex
100
AcDb2dVertex
 10
-29.255923
 20
-12.357213
 30
0.0
  0
VERTEX
  5
340
100
AcDbEntity
  8
EBENE_1
 62
     7
100
AcDbVertex
100
AcDb2dVertex
 10
-29.255923
 20
-14.135227
 30
0.0
  0
VERTEX
  5
341
100
AcDbEntity
  8
EBENE_1
 62
     7
100
AcDbVertex
100
AcDb2dVertex
 10
-34.505215
 20
-13.204017
 30
0.0
  0
SEQEND
  5
342
100
AcDbEntity
  8
EBENE_1
 62
     7
  0
HATCH
  5
33D
100
AcDbEntity
  8
EBENE_1
 62
     7
100
AcDbHatch
 10
0.0
 20
0.0
 30
0.0
210
0.0
220
0.0
230
1.0
  2
SOLID
 70
     1
 71
     0
 91
        1
 92
        3
 72
     0
 73
     1
 93
        3
 10
-29.255923122829859
 20
-12.357212999131944
 10
-29.255923122829859
 20
-14.135226779513888
 10
-34.505215115017357
 20
-13.204017469618055
 97
        0
 75
     0
 76
     1
 98
        1
 10
0.0
 20
0.0
  0
LINE
  5
33C
100
AcDbEntity
  8
EBENE_1
 62
     7
100
AcDbLine
 10
-37.383937
 20
-8.208629
 30
0.0
 11
-37.638013
 21
-8.970684
 31
0.0
  0
LINE
  5
33B
100
AcDbEntity
  8
EBENE_1
 62
     7
100
AcDbLine
 10
-37.638013
 20
-8.970684
 30
0.0
 11
-38.145992
 21
-9.478491
 31
0.0
  0
LINE
  5
33A
100
AcDbEntity
  8
EBENE_1
 62
     7
100
AcDbLine
 10
-38.145992
 20
-9.478491
 30
0.0
 11
-38.823298
 21
-9.732395
 31
0.0
  0
LINE
  5
339
100
AcDbEntity
  8
EBENE_1
 62
     7
100
AcDbLine
 10
-38.823298
 20
-9.732395
 30
0.0
 11
-39.077201
 21
-9.732395
 31
0.0
  0
LINE
  5
338
100
AcDbEntity
  8
EBENE_1
 62
     7
100
AcDbLine
 10
-39.077201
 20
-9.732395
 30
0.0
 11
-39.839256
 21
-9.478491
 31
0.0
  0
LINE
  5
337
100
AcDbEntity
  8
EBENE_1
 62
     7
100
AcDbLine
 10
-39.839256
 20
-9.478491
 30
0.0
 11
-40.347236
 21
-8.970684
 31
0.0
  0
LINE
  5
336
100
AcDbEntity
  8
EBENE_1
 62
     7
100
AcDbLine
 10
-40.347236
 20
-8.970684
 30
0.0
 11
-40.601312
 21
-8.208629
 31
0.0
  0
LINE
  5
335
100
AcDbEntity
  8
EBENE_1
 62
     7
100
AcDbLine
 10
-40.601312
 20
-8.208629
 30
0.0
 11
-40.601312
 21
-7.954381
 31
0.0
  0
LINE
  5
334
100
AcDbEntity
  8
EBENE_1
 62
     7
100
AcDbLine
 10
-40.601312
 20
-7.954381
 30
0.0
 11
-40.347236
 21
-7.19267
 31
0.0
  0
LINE
  5
333
100
AcDbEntity
  8
EBENE_1
 62
     7
100
AcDbLine
 10
-40.347236
 20
-7.19267
 30
0.0
 11
-39.839256
 21
-6.684519
 31
0.0
  0
LINE
  5
332
100
AcDbEntity
  8
EBENE_1
 62
     7
100
AcDbLine
 10
-39.839256
 20
-6.684519
 30
0.0
 11
-39.077201
 21
-6.430615
 31
0.0
  0
LINE
  5
331
100
AcDbEntity
  8
EBENE_1
 62
     7
100
AcDbLine
 10
-39.077201
 20
-6.430615
 30
0.0
 11
-38.823298
 21
-6.430615
 31
0.0
  0
LINE
  5
330
100
AcDbEntity
  8
EBENE_1
 62
     7
100
AcDbLine
 10
-38.823298
 20
-6.430615
 30
0.0
 11
-38.145992
 21
-6.684519
 31
0.0
  0
LINE
  5
32F
100
AcDbEntity
  8
EBENE_1
 62
     7
100
AcDbLine
 10
-38.145992
 20
-6.684519
 30
0.0
 11
-37.638013
 21
-7.19267
 31
0.0
  0
LINE
  5
32E
100
AcDbEntity
  8
EBENE_1
 62
     7
100
AcDbLine
 10
-37.638013
 20
-7.19267
 30
0.0
 11
-37.383937
 21
-8.208629
 31
0.0
  0
LINE
  5
32D
100
AcDbEntity
  8
EBENE_1
 62
     7
100
AcDbLine
 10
-37.383937
 20
-8.208629
 30
0.0
 11
-37.383937
 21
-9.478491
 31
0.0
  0
LINE
  5
32C
100
AcDbEntity
  8
EBENE_1
 62
     7
100
AcDbLine
 10
-37.383937
 20
-9.478491
 30
0.0
 11
-37.638013
 21
-10.748353
 31
0.0
  0
LINE
  5
32B
100
AcDbEntity
  8
EBENE_1
 62
     7
100
AcDbLine
 10
-37.638013
 20
-10.748353
 30
0.0
 11
-38.145992
 21
-11.510409
 31
0.0
  0
LINE
  5
32A
100
AcDbEntity
  8
EBENE_1
 62
     7
100
AcDbLine
 10
-38.145992
 20
-11.510409
 30
0.0
 11
-38.823298
 21
-11.764657
 31
0.0
  0
LINE
  5
329
100
AcDbEntity
  8
EBENE_1
 62
     7
100
AcDbLine
 10
-38.823298
 20
-11.764657
 30
0.0
 11
-39.331277
 21
-11.764657
 31
0.0
  0
LINE
  5
328
100
AcDbEntity
  8
EBENE_1
 62
     7
100
AcDbLine
 10
-39.331277
 20
-11.764657
 30
0.0
 11
-40.093332
 21
-11.510409
 31
0.0
  0
LINE
  5
327
100
AcDbEntity
  8
EBENE_1
 62
     7
100
AcDbLine
 10
-40.093332
 20
-11.510409
 30
0.0
 11
-40.347236
 21
-11.002601
 31
0.0
  0
LINE
  5
326
100
AcDbEntity
  8
EBENE_1
 62
     7
100
AcDbLine
 10
-40.347236
 20
-11.002601
 30
0.0
 11
-40.347236
 21
-11.002601
 31
0.0
  0
LINE
  5
325
100
AcDbEntity
  8
EBENE_1
 62
     7
100
AcDbLine
 10
52.108447
 20
-44.61502
 30
0.0
 11
52.108447
 21
-48.679199
 31
0.0
  0
LINE
  5
324
100
AcDbEntity
  8
EBENE_1
 62
     7
100
AcDbLine
 10
54.056304
 20
-44.61502
 30
0.0
 11
53.971555
 21
-43.853309
 31
0.0
  0
LINE
  5
323
100
AcDbEntity
  8
EBENE_1
 62
     7
100
AcDbLine
 10
53.971555
 20
-43.853309
 30
0.0
 11
53.547808
 21
-43.260409
 31
0.0
  0
LINE
  5
322
100
AcDbEntity
  8
EBENE_1
 62
     7
100
AcDbLine
 10
53.547808
 20
-43.260409
 30
0.0
 11
52.870502
 21
-42.752601
 31
0.0
  0
LINE
  5
321
100
AcDbEntity
  8
EBENE_1
 62
     7
100
AcDbLine
 10
52.870502
 20
-42.752601
 30
0.0
 11
52.108447
 21
-42.667852
 31
0.0
  0
LINE
  5
320
100
AcDbEntity
  8
EBENE_1
 62
     7
100
AcDbLine
 10
52.108447
 20
-42.667852
 30
0.0
 11
51.346392
 21
-42.752601
 31
0.0
  0
LINE
  5
31F
100
AcDbEntity
  8
EBENE_1
 62
     7
100
AcDbLine
 10
51.346392
 20
-42.752601
 30
0.0
 11
50.669086
 21
-43.260409
 31
0.0
  0
LINE
  5
31E
100
AcDbEntity
  8
EBENE_1
 62
     7
100
AcDbLine
 10
50.669086
 20
-43.260409
 30
0.0
 11
50.246029
 21
-43.853309
 31
0.0
  0
LINE
  5
31D
100
AcDbEntity
  8
EBENE_1
 62
     7
100
AcDbLine
 10
50.246029
 20
-43.853309
 30
0.0
 11
50.07653
 21
-44.61502
 31
0.0
  0
LINE
  5
31C
100
AcDbEntity
  8
EBENE_1
 62
     7
100
AcDbLine
 10
50.07653
 20
-44.61502
 30
0.0
 11
50.246029
 21
-45.377075
 31
0.0
  0
LINE
  5
31B
100
AcDbEntity
  8
EBENE_1
 62
     7
100
AcDbLine
 10
50.246029
 20
-45.377075
 30
0.0
 11
50.669086
 21
-46.054381
 31
0.0
  0
LINE
  5
31A
100
AcDbEntity
  8
EBENE_1
 62
     7
100
AcDbLine
 10
50.669086
 20
-46.054381
 30
0.0
 11
51.346392
 21
-46.477783
 31
0.0
  0
LINE
  5
319
100
AcDbEntity
  8
EBENE_1
 62
     7
100
AcDbLine
 10
51.346392
 20
-46.477783
 30
0.0
 11
52.108447
 21
-46.647282
 31
0.0
  0
LINE
  5
318
100
AcDbEntity
  8
EBENE_1
 62
     7
100
AcDbLine
 10
52.108447
 20
-46.647282
 30
0.0
 11
52.870502
 21
-46.477783
 31
0.0
  0
LINE
  5
317
100
AcDbEntity
  8
EBENE_1
 62
     7
100
AcDbLine
 10
52.870502
 20
-46.477783
 30
0.0
 11
53.547808
 21
-46.054381
 31
0.0
  0
LINE
  5
316
100
AcDbEntity
  8
EBENE_1
 62
     7
100
AcDbLine
 10
53.547808
 20
-46.054381
 30
0.0
 11
53.971555
 21
-45.377075
 31
0.0
  0
LINE
  5
315
100
AcDbEntity
  8
EBENE_1
 62
     7
100
AcDbLine
 10
53.971555
 20
-45.377075
 30
0.0
 11
54.056304
 21
-44.61502
 31
0.0
  0
LINE
  5
314
100
AcDbEntity
  8
EBENE_1
 62
     7
100
AcDbLine
 10
55.326166
 20
-44.61502
 30
0.0
 11
55.156668
 21
-43.599061
 31
0.0
  0
LINE
  5
313
100
AcDbEntity
  8
EBENE_1
 62
     7
100
AcDbLine
 10
55.156668
 20
-43.599061
 30
0.0
 11
54.73361
 21
-42.752601
 31
0.0
  0
LINE
  5
312
100
AcDbEntity
  8
EBENE_1
 62
     7
100
AcDbLine
 10
54.73361
 20
-42.752601
 30
0.0
 11
53.971555
 21
-41.990546
 31
0.0
  0
LINE
  5
311
100
AcDbEntity
  8
EBENE_1
 62
     7
100
AcDbLine
 10
53.971555
 20
-41.990546
 30
0.0
 11
53.12475
 21
-41.567144
 31
0.0
  0
LINE
  5
310
100
AcDbEntity
  8
EBENE_1
 62
     7
100
AcDbLine
 10
53.12475
 20
-41.567144
 30
0.0
 11
52.108447
 21
-41.39799
 31
0.0
  0
LINE
  5
30F
100
AcDbEntity
  8
EBENE_1
 62
     7
100
AcDbLine
 10
52.108447
 20
-41.39799
 30
0.0
 11
51.092833
 21
-41.567144
 31
0.0
  0
LINE
  5
30E
100
AcDbEntity
  8
EBENE_1
 62
     7
100
AcDbLine
 10
51.092833
 20
-41.567144
 30
0.0
 11
50.161279
 21
-41.990546
 31
0.0
  0
LINE
  5
30D
100
AcDbEntity
  8
EBENE_1
 62
     7
100
AcDbLine
 10
50.161279
 20
-41.990546
 30
0.0
 11
49.483974
 21
-42.752601
 31
0.0
  0
LINE
  5
30C
100
AcDbEntity
  8
EBENE_1
 62
     7
100
AcDbLine
 10
49.483974
 20
-42.752601
 30
0.0
 11
48.976166
 21
-43.599061
 31
0.0
  0
LINE
  5
30B
100
AcDbEntity
  8
EBENE_1
 62
     7
100
AcDbLine
 10
48.976166
 20
-43.599061
 30
0.0
 11
48.806668
 21
-44.61502
 31
0.0
  0
LINE
  5
30A
100
AcDbEntity
  8
EBENE_1
 62
     7
100
AcDbLine
 10
48.806668
 20
-44.61502
 30
0.0
 11
48.976166
 21
-45.631323
 31
0.0
  0
LINE
  5
309
100
AcDbEntity
  8
EBENE_1
 62
     7
100
AcDbLine
 10
48.976166
 20
-45.631323
 30
0.0
 11
49.483974
 21
-46.562533
 31
0.0
  0
LINE
  5
308
100
AcDbEntity
  8
EBENE_1
 62
     7
100
AcDbLine
 10
49.483974
 20
-46.562533
 30
0.0
 11
50.161279
 21
-47.239838
 31
0.0
  0
LINE
  5
307
100
AcDbEntity
  8
EBENE_1
 62
     7
100
AcDbLine
 10
50.161279
 20
-47.239838
 30
0.0
 11
51.092833
 21
-47.74799
 31
0.0
  0
LINE
  5
306
100
AcDbEntity
  8
EBENE_1
 62
     7
100
AcDbLine
 10
51.092833
 20
-47.74799
 30
0.0
 11
52.108447
 21
-47.917144
 31
0.0
  0
LINE
  5
305
100
AcDbEntity
  8
EBENE_1
 62
     7
100
AcDbLine
 10
52.108447
 20
-47.917144
 30
0.0
 11
53.12475
 21
-47.74799
 31
0.0
  0
LINE
  5
304
100
AcDbEntity
  8
EBENE_1
 62
     7
100
AcDbLine
 10
53.12475
 20
-47.74799
 30
0.0
 11
53.971555
 21
-47.239838
 31
0.0
  0
LINE
  5
303
100
AcDbEntity
  8
EBENE_1
 62
     7
100
AcDbLine
 10
53.971555
 20
-47.239838
 30
0.0
 11
54.73361
 21
-46.562533
 31
0.0
  0
LINE
  5
302
100
AcDbEntity
  8
EBENE_1
 62
     7
100
AcDbLine
 10
54.73361
 20
-46.562533
 30
0.0
 11
55.156668
 21
-45.631323
 31
0.0
  0
LINE
  5
301
100
AcDbEntity
  8
EBENE_1
 62
     7
100
AcDbLine
 10
55.156668
 20
-45.631323
 30
0.0
 11
55.326166
 21
-44.61502
 31
0.0
  0
LINE
  5
300
100
AcDbEntity
  8
EBENE_1
 62
     7
100
AcDbLine
 10
-13.761951
 20
-30.645158
 30
0.0
 11
-13.761951
 21
-46.647282
 31
0.0
  0
LINE
  5
2FF
100
AcDbEntity
  8
EBENE_1
 62
     7
100
AcDbLine
 10
45.081141
 20
-78.651185
 30
0.0
 11
34.752056
 21
-78.651185
 31
0.0
  0
LINE
  5
2FE
100
AcDbEntity
  8
EBENE_1
 62
     7
100
AcDbLine
 10
46.605252
 20
-44.61502
 30
0.0
 11
34.752056
 21
-44.61502
 31
0.0
  0
LINE
  5
2FD
100
AcDbEntity
  8
EBENE_1
 62
     7
100
AcDbLine
 10
35.514111
 20
-73.401893
 30
0.0
 11
35.514111
 21
-49.864657
 31
0.0
  0
POLYLINE
  5
2F8
100
AcDbEntity
  8
EBENE_1
 62
     7
100
AcDb2dPolyline
 66
     1
 10
0.0
 20
0.0
 30
0.0
 70
     1
  0
VERTEX
  5
2F9
100
AcDbEntity
  8
EBENE_1
 62
     7
100
AcDbVertex
100
AcDb2dVertex
 10
34.667307
 20
-73.401893
 30
0.0
  0
VERTEX
  5
2FA
100
AcDbEntity
  8
EBENE_1
 62
     7
100
AcDbVertex
100
AcDb2dVertex
 10
36.360916
 20
-73.401893
 30
0.0
  0
VERTEX
  5
2FB
100
AcDbEntity
  8
EBENE_1
 62
     7
100
AcDbVertex
100
AcDb2dVertex
 10
35.514111
 20
-78.651185
 30
0.0
  0
SEQEND
  5
2FC
100
AcDbEntity
  8
EBENE_1
 62
     7
  0
HATCH
  5
2F7
100
AcDbEntity
  8
EBENE_1
 62
     7
100
AcDbHatch
 10
0.0
 20
0.0
 30
0.0
210
0.0
220
0.0
230
1.0
  2
SOLID
 70
     1
 71
     0
 91
        1
 92
        3
 72
     0
 73
     1
 93
        3
 10
34.667306857638884
 20
-73.401893446180551
 10
36.36091579861111
 20
-73.401893446180551
 10
35.514111328124997
 20
-78.651185438368046
 97
        0
 75
     0
 76
     1
 98
        1
 10
0.0
 20
0.0
  0
POLYLINE
  5
2F2
100
AcDbEntity
  8
EBENE_1
 62
     7
100
AcDb2dPolyline
 66
     1
 10
0.0
 20
0.0
 30
0.0
 70
     1
  0
VERTEX
  5
2F3
100
AcDbEntity
  8
EBENE_1
 62
     7
100
AcDbVertex
100
AcDb2dVertex
 10
34.667307
 20
-49.864657
 30
0.0
  0
VERTEX
  5
2F4
100
AcDbEntity
  8
EBENE_1
 62
     7
100
AcDbVertex
100
AcDb2dVertex
 10
36.360916
 20
-49.864657
 30
0.0
  0
VERTEX
  5
2F5
100
AcDbEntity
  8
EBENE_1
 62
     7
100
AcDbVertex
100
AcDb2dVertex
 10
35.514111
 20
-44.61502
 30
0.0
  0
SEQEND
  5
2F6
100
AcDbEntity
  8
EBENE_1
 62
     7
  0
HATCH
  5
2F1
100
AcDbEntity
  8
EBENE_1
 62
     7
100
AcDbHatch
 10
0.0
 20
0.0
 30
0.0
210
0.0
220
0.0
230
1.0
  2
SOLID
 70
     1
 71
     0
 91
        1
 92
        3
 72
     0
 73
     1
 93
        3
 10
34.667306857638884
 20
-49.864656575520826
 10
36.36091579861111
 20
-49.864656575520826
 10
35.514111328124997
 20
-44.61502007378472
 97
        0
 75
     0
 76
     1
 98
        1
 10
0.0
 20
0.0
  0
LINE
  5
2F0
100
AcDbEntity
  8
EBENE_1
 62
     7
100
AcDbLine
 10
28.740365
 20
-65.527783
 30
0.0
 11
28.740365
 21
-62.733811
 31
0.0
  0
LINE
  5
2EF
100
AcDbEntity
  8
EBENE_1
 62
     7
100
AcDbLine
 10
28.740365
 20
-62.733811
 30
0.0
 11
30.772971
 21
-64.257921
 31
0.0
  0
LINE
  5
2EE
100
AcDbEntity
  8
EBENE_1
 62
     7
100
AcDbLine
 10
30.772971
 20
-64.257921
 30
0.0
 11
30.772971
 21
-63.495866
 31
0.0
  0
LINE
  5
2ED
100
AcDbEntity
  8
EBENE_1
 62
     7
100
AcDbLine
 10
30.772971
 20
-63.495866
 30
0.0
 11
31.02653
 21
-62.987714
 31
0.0
  0
LINE
  5
2EC
100
AcDbEntity
  8
EBENE_1
 62
     7
100
AcDbLine
 10
31.02653
 20
-62.987714
 30
0.0
 11
31.280778
 21
-62.733811
 31
0.0
  0
LINE
  5
2EB
100
AcDbEntity
  8
EBENE_1
 62
     7
100
AcDbLine
 10
31.280778
 20
-62.733811
 30
0.0
 11
32.042833
 21
-62.479907
 31
0.0
  0
LINE
  5
2EA
100
AcDbEntity
  8
EBENE_1
 62
     7
100
AcDbLine
 10
32.042833
 20
-62.479907
 30
0.0
 11
32.55064
 21
-62.479907
 31
0.0
  0
LINE
  5
2E9
100
AcDbEntity
  8
EBENE_1
 62
     7
100
AcDbLine
 10
32.55064
 20
-62.479907
 30
0.0
 11
33.227946
 21
-62.733811
 31
0.0
  0
LINE
  5
2E8
100
AcDbEntity
  8
EBENE_1
 62
     7
100
AcDbLine
 10
33.227946
 20
-62.733811
 30
0.0
 11
33.735753
 21
-63.241962
 31
0.0
  0
LINE
  5
2E7
100
AcDbEntity
  8
EBENE_1
 62
     7
100
AcDbLine
 10
33.735753
 20
-63.241962
 30
0.0
 11
33.990001
 21
-64.004017
 31
0.0
  0
LINE
  5
2E6
100
AcDbEntity
  8
EBENE_1
 62
     7
100
AcDbLine
 10
33.990001
 20
-64.004017
 30
0.0
 11
33.990001
 21
-64.765728
 31
0.0
  0
LINE
  5
2E5
100
AcDbEntity
  8
EBENE_1
 62
     7
100
AcDbLine
 10
33.990001
 20
-64.765728
 30
0.0
 11
33.735753
 21
-65.527783
 31
0.0
  0
LINE
  5
2E4
100
AcDbEntity
  8
EBENE_1
 62
     7
100
AcDbLine
 10
33.735753
 20
-65.527783
 30
0.0
 11
33.482194
 21
-65.781687
 31
0.0
  0
LINE
  5
2E3
100
AcDbEntity
  8
EBENE_1
 62
     7
100
AcDbLine
 10
33.482194
 20
-65.781687
 30
0.0
 11
32.973698
 21
-66.035935
 31
0.0
  0
LINE
  5
2E2
100
AcDbEntity
  8
EBENE_1
 62
     7
100
AcDbLine
 10
28.740365
 20
-58.500477
 30
0.0
 11
32.296392
 21
-61.040546
 31
0.0
  0
LINE
  5
2E1
100
AcDbEntity
  8
EBENE_1
 62
     7
100
AcDbLine
 10
32.296392
 20
-61.040546
 30
0.0
 11
32.296392
 21
-57.230615
 31
0.0
  0
LINE
  5
2E0
100
AcDbEntity
  8
EBENE_1
 62
     7
100
AcDbLine
 10
28.740365
 20
-58.500477
 30
0.0
 11
33.990001
 21
-58.500477
 31
0.0
  0
LINE
  5
2DF
100
AcDbEntity
  8
EBENE_1
 62
     7
100
AcDbLine
 10
-15.455215
 20
-79.159337
 30
0.0
 11
10.28361
 21
-79.159337
 31
0.0
  0
LINE
  5
2DE
100
AcDbEntity
  8
EBENE_1
 62
     7
100
AcDbLine
 10
-16.386597
 20
3.390663
 30
0.0
 11
10.28361
 21
3.390663
 31
0.0
  0
LINE
  5
2DD
100
AcDbEntity
  8
EBENE_1
 62
     7
100
AcDbLine
 10
9.521555
 20
-73.909701
 30
0.0
 11
9.521555
 21
-1.858629
 31
0.0
  0
POLYLINE
  5
2D8
100
AcDbEntity
  8
EBENE_1
 62
     7
100
AcDb2dPolyline
 66
     1
 10
0.0
 20
0.0
 30
0.0
 70
     1
  0
VERTEX
  5
2D9
100
AcDbEntity
  8
EBENE_1
 62
     7
100
AcDbVertex
100
AcDb2dVertex
 10
8.590001
 20
-73.909701
 30
0.0
  0
VERTEX
  5
2DA
100
AcDbEntity
  8
EBENE_1
 62
     7
100
AcDbVertex
100
AcDb2dVertex
 10
10.368015
 20
-73.909701
 30
0.0
  0
VERTEX
  5
2DB
100
AcDbEntity
  8
EBENE_1
 62
     7
100
AcDbVertex
100
AcDb2dVertex
 10
9.521555
 20
-79.159337
 30
0.0
  0
SEQEND
  5
2DC
100
AcDbEntity
  8
EBENE_1
 62
     7
  0
HATCH
  5
2D7
100
AcDbEntity
  8
EBENE_1
 62
     7
100
AcDbHatch
 10
0.0
 20
0.0
 30
0.0
210
0.0
220
0.0
230
1.0
  2
SOLID
 70
     1
 71
     0
 91
        1
 92
        3
 72
     0
 73
     1
 93
        3
 10
8.5900010850694439
 20
-73.909700520833326
 10
10.368014865451388
 20
-73.909700520833326
 10
9.5215549045138879
 20
-79.159337022569431
 97
        0
 75
     0
 76
     1
 98
        1
 10
0.0
 20
0.0
  0
POLYLINE
  5
2D2
100
AcDbEntity
  8
EBENE_1
 62
     7
100
AcDb2dPolyline
 66
     1
 10
0.0
 20
0.0
 30
0.0
 70
     1
  0
VERTEX
  5
2D3
100
AcDbEntity
  8
EBENE_1
 62
     7
100
AcDbVertex
100
AcDb2dVertex
 10
8.590001
 20
-1.858629
 30
0.0
  0
VERTEX
  5
2D4
100
AcDbEntity
  8
EBENE_1
 62
     7
100
AcDbVertex
100
AcDb2dVertex
 10
10.368015
 20
-1.858629
 30
0.0
  0
VERTEX
  5
2D5
100
AcDbEntity
  8
EBENE_1
 62
     7
100
AcDbVertex
100
AcDb2dVertex
 10
9.521555
 20
3.390663
 30
0.0
  0
SEQEND
  5
2D6
100
AcDbEntity
  8
EBENE_1
 62
     7
  0
HATCH
  5
2D1
100
AcDbEntity
  8
EBENE_1
 62
     7
100
AcDbHatch
 10
0.0
 20
0.0
 30
0.0
210
0.0
220
0.0
230
1.0
  2
SOLID
 70
     1
 71
     0
 91
        1
 92
        3
 72
     0
 73
     1
 93
        3
 10
8.5900010850694439
 20
-1.8586290147569442
 10
10.368014865451388
 20
-1.8586290147569442
 10
9.5215549045138879
 20
3.3906629774305554
 97
        0
 75
     0
 76
     1
 98
        1
 10
0.0
 20
0.0
  0
LINE
  5
2D0
100
AcDbEntity
  8
EBENE_1
 62
     7
100
AcDbLine
 10
2.747808
 20
-44.61502
 30
0.0
 11
3.002056
 21
-45.377075
 31
0.0
  0
LINE
  5
2CF
100
AcDbEntity
  8
EBENE_1
 62
     7
100
AcDbLine
 10
3.002056
 20
-45.377075
 30
0.0
 11
3.509863
 21
-45.631323
 31
0.0
  0
LINE
  5
2CE
100
AcDbEntity
  8
EBENE_1
 62
     7
100
AcDbLine
 10
3.509863
 20
-45.631323
 30
0.0
 11
4.018015
 21
-45.631323
 31
0.0
  0
LINE
  5
2CD
100
AcDbEntity
  8
EBENE_1
 62
     7
100
AcDbLine
 10
4.018015
 20
-45.631323
 30
0.0
 11
4.526166
 21
-45.377075
 31
0.0
  0
LINE
  5
2CC
100
AcDbEntity
  8
EBENE_1
 62
     7
100
AcDbLine
 10
4.526166
 20
-45.377075
 30
0.0
 11
4.78007
 21
-44.869268
 31
0.0
  0
LINE
  5
2CB
100
AcDbEntity
  8
EBENE_1
 62
     7
100
AcDbLine
 10
4.78007
 20
-44.869268
 30
0.0
 11
5.033974
 21
-43.853309
 31
0.0
  0
LINE
  5
2CA
100
AcDbEntity
  8
EBENE_1
 62
     7
100
AcDbLine
 10
5.033974
 20
-43.853309
 30
0.0
 11
5.288222
 21
-43.176004
 31
0.0
  0
LINE
  5
2C9
100
AcDbEntity
  8
EBENE_1
 62
     7
100
AcDbLine
 10
5.288222
 20
-43.176004
 30
0.0
 11
5.711279
 21
-42.667852
 31
0.0
  0
LINE
  5
2C8
100
AcDbEntity
  8
EBENE_1
 62
     7
100
AcDbLine
 10
5.711279
 20
-42.667852
 30
0.0
 11
6.219431
 21
-42.413949
 31
0.0
  0
LINE
  5
2C7
100
AcDbEntity
  8
EBENE_1
 62
     7
100
AcDbLine
 10
6.219431
 20
-42.413949
 30
0.0
 11
6.981141
 21
-42.413949
 31
0.0
  0
LINE
  5
2C6
100
AcDbEntity
  8
EBENE_1
 62
     7
100
AcDbLine
 10
6.981141
 20
-42.413949
 30
0.0
 11
7.489638
 21
-42.667852
 31
0.0
  0
LINE
  5
2C5
100
AcDbEntity
  8
EBENE_1
 62
     7
100
AcDbLine
 10
7.489638
 20
-42.667852
 30
0.0
 11
7.743197
 21
-42.921756
 31
0.0
  0
LINE
  5
2C4
100
AcDbEntity
  8
EBENE_1
 62
     7
100
AcDbLine
 10
7.743197
 20
-42.921756
 30
0.0
 11
7.997445
 21
-43.683811
 31
0.0
  0
LINE
  5
2C3
100
AcDbEntity
  8
EBENE_1
 62
     7
100
AcDbLine
 10
7.997445
 20
-43.683811
 30
0.0
 11
7.997445
 21
-44.61502
 31
0.0
  0
LINE
  5
2C2
100
AcDbEntity
  8
EBENE_1
 62
     7
100
AcDbLine
 10
7.997445
 20
-44.61502
 30
0.0
 11
7.743197
 21
-45.377075
 31
0.0
  0
LINE
  5
2C1
100
AcDbEntity
  8
EBENE_1
 62
     7
100
AcDbLine
 10
7.743197
 20
-45.377075
 30
0.0
 11
7.489638
 21
-45.631323
 31
0.0
  0
LINE
  5
2C0
100
AcDbEntity
  8
EBENE_1
 62
     7
100
AcDbLine
 10
7.489638
 20
-45.631323
 30
0.0
 11
6.981141
 21
-45.885227
 31
0.0
  0
LINE
  5
2BF
100
AcDbEntity
  8
EBENE_1
 62
     7
100
AcDbLine
 10
6.981141
 20
-45.885227
 30
0.0
 11
6.219431
 21
-45.885227
 31
0.0
  0
LINE
  5
2BE
100
AcDbEntity
  8
EBENE_1
 62
     7
100
AcDbLine
 10
6.219431
 20
-45.885227
 30
0.0
 11
5.711279
 21
-45.631323
 31
0.0
  0
LINE
  5
2BD
100
AcDbEntity
  8
EBENE_1
 62
     7
100
AcDbLine
 10
5.711279
 20
-45.631323
 30
0.0
 11
5.288222
 21
-45.123172
 31
0.0
  0
LINE
  5
2BC
100
AcDbEntity
  8
EBENE_1
 62
     7
100
AcDbLine
 10
5.288222
 20
-45.123172
 30
0.0
 11
5.033974
 21
-44.361117
 31
0.0
  0
LINE
  5
2BB
100
AcDbEntity
  8
EBENE_1
 62
     7
100
AcDbLine
 10
5.033974
 20
-44.361117
 30
0.0
 11
4.78007
 21
-43.429907
 31
0.0
  0
LINE
  5
2BA
100
AcDbEntity
  8
EBENE_1
 62
     7
100
AcDbLine
 10
4.78007
 20
-43.429907
 30
0.0
 11
4.526166
 21
-42.921756
 31
0.0
  0
LINE
  5
2B9
100
AcDbEntity
  8
EBENE_1
 62
     7
100
AcDbLine
 10
4.526166
 20
-42.921756
 30
0.0
 11
4.018015
 21
-42.667852
 31
0.0
  0
LINE
  5
2B8
100
AcDbEntity
  8
EBENE_1
 62
     7
100
AcDbLine
 10
4.018015
 20
-42.667852
 30
0.0
 11
3.509863
 21
-42.667852
 31
0.0
  0
LINE
  5
2B7
100
AcDbEntity
  8
EBENE_1
 62
     7
100
AcDbLine
 10
3.509863
 20
-42.667852
 30
0.0
 11
3.002056
 21
-42.921756
 31
0.0
  0
LINE
  5
2B6
100
AcDbEntity
  8
EBENE_1
 62
     7
100
AcDbLine
 10
3.002056
 20
-42.921756
 30
0.0
 11
2.747808
 21
-43.683811
 31
0.0
  0
LINE
  5
2B5
100
AcDbEntity
  8
EBENE_1
 62
     7
100
AcDbLine
 10
2.747808
 20
-43.683811
 30
0.0
 11
2.747808
 21
-44.61502
 31
0.0
  0
LINE
  5
2B4
100
AcDbEntity
  8
EBENE_1
 62
     7
100
AcDbLine
 10
4.018015
 20
-40.635935
 30
0.0
 11
3.764111
 21
-40.635935
 31
0.0
  0
LINE
  5
2B3
100
AcDbEntity
  8
EBENE_1
 62
     7
100
AcDbLine
 10
3.764111
 20
-40.635935
 30
0.0
 11
3.25596
 21
-40.381687
 31
0.0
  0
LINE
  5
2B2
100
AcDbEntity
  8
EBENE_1
 62
     7
100
AcDbLine
 10
3.25596
 20
-40.381687
 30
0.0
 11
3.002056
 21
-40.127783
 31
0.0
  0
LINE
  5
2B1
100
AcDbEntity
  8
EBENE_1
 62
     7
100
AcDbLine
 10
3.002056
 20
-40.127783
 30
0.0
 11
2.747808
 21
-39.619976
 31
0.0
  0
LINE
  5
2B0
100
AcDbEntity
  8
EBENE_1
 62
     7
100
AcDbLine
 10
2.747808
 20
-39.619976
 30
0.0
 11
2.747808
 21
-38.604017
 31
0.0
  0
LINE
  5
2AF
100
AcDbEntity
  8
EBENE_1
 62
     7
100
AcDbLine
 10
2.747808
 20
-38.604017
 30
0.0
 11
3.002056
 21
-38.180615
 31
0.0
  0
LINE
  5
2AE
100
AcDbEntity
  8
EBENE_1
 62
     7
100
AcDbLine
 10
3.002056
 20
-38.180615
 30
0.0
 11
3.25596
 21
-37.926367
 31
0.0
  0
LINE
  5
2AD
100
AcDbEntity
  8
EBENE_1
 62
     7
100
AcDbLine
 10
3.25596
 20
-37.926367
 30
0.0
 11
3.764111
 21
-37.672464
 31
0.0
  0
LINE
  5
2AC
100
AcDbEntity
  8
EBENE_1
 62
     7
100
AcDbLine
 10
3.764111
 20
-37.672464
 30
0.0
 11
4.271918
 21
-37.672464
 31
0.0
  0
LINE
  5
2AB
100
AcDbEntity
  8
EBENE_1
 62
     7
100
AcDbLine
 10
4.271918
 20
-37.672464
 30
0.0
 11
4.78007
 21
-37.926367
 31
0.0
  0
LINE
  5
2AA
100
AcDbEntity
  8
EBENE_1
 62
     7
100
AcDbLine
 10
4.78007
 20
-37.926367
 30
0.0
 11
5.457376
 21
-38.349769
 31
0.0
  0
LINE
  5
2A9
100
AcDbEntity
  8
EBENE_1
 62
     7
100
AcDbLine
 10
5.457376
 20
-38.349769
 30
0.0
 11
7.997445
 21
-40.889838
 31
0.0
  0
LINE
  5
2A8
100
AcDbEntity
  8
EBENE_1
 62
     7
100
AcDbLine
 10
7.997445
 20
-40.889838
 30
0.0
 11
7.997445
 21
-37.41856
 31
0.0
  0
LINE
  5
2A7
100
AcDbEntity
  8
EBENE_1
 62
     7
100
AcDbLine
 10
7.489638
 20
-35.640546
 30
0.0
 11
7.743197
 21
-35.89445
 31
0.0
  0
LINE
  5
2A6
100
AcDbEntity
  8
EBENE_1
 62
     7
100
AcDbLine
 10
7.743197
 20
-35.89445
 30
0.0
 11
7.997445
 21
-35.640546
 31
0.0
  0
LINE
  5
2A5
100
AcDbEntity
  8
EBENE_1
 62
     7
100
AcDbLine
 10
7.997445
 20
-35.640546
 30
0.0
 11
7.743197
 21
-35.386643
 31
0.0
  0
LINE
  5
2A4
100
AcDbEntity
  8
EBENE_1
 62
     7
100
AcDbLine
 10
2.747808
 20
-30.391254
 30
0.0
 11
2.747808
 21
-32.931323
 31
0.0
  0
LINE
  5
2A3
100
AcDbEntity
  8
EBENE_1
 62
     7
100
AcDbLine
 10
2.747808
 20
-32.931323
 30
0.0
 11
5.033974
 21
-33.100477
 31
0.0
  0
LINE
  5
2A2
100
AcDbEntity
  8
EBENE_1
 62
     7
100
AcDbLine
 10
5.033974
 20
-33.100477
 30
0.0
 11
4.78007
 21
-32.931323
 31
0.0
  0
LINE
  5
2A1
100
AcDbEntity
  8
EBENE_1
 62
     7
100
AcDbLine
 10
4.78007
 20
-32.931323
 30
0.0
 11
4.526166
 21
-32.169268
 31
0.0
  0
LINE
  5
2A0
100
AcDbEntity
  8
EBENE_1
 62
     7
100
AcDbLine
 10
4.526166
 20
-32.169268
 30
0.0
 11
4.526166
 21
-31.407213
 31
0.0
  0
LINE
  5
29F
100
AcDbEntity
  8
EBENE_1
 62
     7
100
AcDbLine
 10
4.526166
 20
-31.407213
 30
0.0
 11
4.78007
 21
-30.645158
 31
0.0
  0
LINE
  5
29E
100
AcDbEntity
  8
EBENE_1
 62
     7
100
AcDbLine
 10
4.78007
 20
-30.645158
 30
0.0
 11
5.288222
 21
-30.137351
 31
0.0
  0
LINE
  5
29D
100
AcDbEntity
  8
EBENE_1
 62
     7
100
AcDbLine
 10
5.288222
 20
-30.137351
 30
0.0
 11
5.965527
 21
-29.883103
 31
0.0
  0
LINE
  5
29C
100
AcDbEntity
  8
EBENE_1
 62
     7
100
AcDbLine
 10
5.965527
 20
-29.883103
 30
0.0
 11
6.473334
 21
-29.883103
 31
0.0
  0
LINE
  5
29B
100
AcDbEntity
  8
EBENE_1
 62
     7
100
AcDbLine
 10
6.473334
 20
-29.883103
 30
0.0
 11
7.23539
 21
-30.137351
 31
0.0
  0
LINE
  5
29A
100
AcDbEntity
  8
EBENE_1
 62
     7
100
AcDbLine
 10
7.23539
 20
-30.137351
 30
0.0
 11
7.743197
 21
-30.645158
 31
0.0
  0
LINE
  5
299
100
AcDbEntity
  8
EBENE_1
 62
     7
100
AcDbLine
 10
7.743197
 20
-30.645158
 30
0.0
 11
7.997445
 21
-31.407213
 31
0.0
  0
LINE
  5
298
100
AcDbEntity
  8
EBENE_1
 62
     7
100
AcDbLine
 10
7.997445
 20
-31.407213
 30
0.0
 11
7.997445
 21
-32.169268
 31
0.0
  0
LINE
  5
297
100
AcDbEntity
  8
EBENE_1
 62
     7
100
AcDbLine
 10
7.997445
 20
-32.169268
 30
0.0
 11
7.743197
 21
-32.931323
 31
0.0
  0
LINE
  5
296
100
AcDbEntity
  8
EBENE_1
 62
     7
100
AcDbLine
 10
7.743197
 20
-32.931323
 30
0.0
 11
7.489638
 21
-33.100477
 31
0.0
  0
LINE
  5
295
100
AcDbEntity
  8
EBENE_1
 62
     7
100
AcDbLine
 10
7.489638
 20
-33.100477
 30
0.0
 11
6.981141
 21
-33.354381
 31
0.0
  0
LINE
  5
294
100
AcDbEntity
  8
EBENE_1
 62
     7
100
AcDbLine
 10
6.981141
 20
-33.354381
 30
0.0
 11
6.981141
 21
-33.354381
 31
0.0
  0
LINE
  5
293
100
AcDbEntity
  8
EBENE_1
 62
     7
100
AcDbLine
 10
-12.491916
 20
45.385516
 30
0.0
 11
-12.491916
 21
-46.647282
 31
0.0
  0
LINE
  5
292
100
AcDbEntity
  8
EBENE_1
 62
     7
100
AcDbLine
 10
-34.505215
 20
-80.175296
 30
0.0
 11
-34.505215
 21
-95.838422
 31
0.0
  0
LINE
  5
291
100
AcDbEntity
  8
EBENE_1
 62
     7
100
AcDbLine
 10
-15.455215
 20
-79.159337
 30
0.0
 11
-15.455215
 21
-95.838422
 31
0.0
  0
LINE
  5
290
100
AcDbEntity
  8
EBENE_1
 62
     7
100
AcDbLine
 10
-29.255923
 20
-95.076367
 30
0.0
 11
-20.704679
 21
-95.076367
 31
0.0
  0
POLYLINE
  5
28B
100
AcDbEntity
  8
EBENE_1
 62
     7
100
AcDb2dPolyline
 66
     1
 10
0.0
 20
0.0
 30
0.0
 70
     1
  0
VERTEX
  5
28C
100
AcDbEntity
  8
EBENE_1
 62
     7
100
AcDbVertex
100
AcDb2dVertex
 10
-29.255923
 20
-94.229907
 30
0.0
  0
VERTEX
  5
28D
100
AcDbEntity
  8
EBENE_1
 62
     7
100
AcDbVertex
100
AcDb2dVertex
 10
-29.255923
 20
-96.007921
 30
0.0
  0
VERTEX
  5
28E
100
AcDbEntity
  8
EBENE_1
 62
     7
100
AcDbVertex
100
AcDb2dVertex
 10
-34.505215
 20
-95.076367
 30
0.0
  0
SEQEND
  5
28F
100
AcDbEntity
  8
EBENE_1
 62
     7
  0
HATCH
  5
28A
100
AcDbEntity
  8
EBENE_1
 62
     7
100
AcDbHatch
 10
0.0
 20
0.0
 30
0.0
210
0.0
220
0.0
230
1.0
  2
SOLID
 70
     1
 71
     0
 91
        1
 92
        3
 72
     0
 73
     1
 93
        3
 10
-29.255923122829859
 20
-94.229907226562489
 10
-29.255923122829859
 20
-96.007921006944429
 10
-34.505215115017357
 20
-95.076367187499997
 97
        0
 75
     0
 76
     1
 98
        1
 10
0.0
 20
0.0
  0
POLYLINE
  5
285
100
AcDbEntity
  8
EBENE_1
 62
     7
100
AcDb2dPolyline
 66
     1
 10
0.0
 20
0.0
 30
0.0
 70
     1
  0
VERTEX
  5
286
100
AcDbEntity
  8
EBENE_1
 62
     7
100
AcDbVertex
100
AcDb2dVertex
 10
-20.704679
 20
-94.229907
 30
0.0
  0
VERTEX
  5
287
100
AcDbEntity
  8
EBENE_1
 62
     7
100
AcDbVertex
100
AcDb2dVertex
 10
-20.704679
 20
-96.007921
 30
0.0
  0
VERTEX
  5
288
100
AcDbEntity
  8
EBENE_1
 62
     7
100
AcDbVertex
100
AcDb2dVertex
 10
-15.455215
 20
-95.076367
 30
0.0
  0
SEQEND
  5
289
100
AcDbEntity
  8
EBENE_1
 62
     7
  0
HATCH
  5
284
100
AcDbEntity
  8
EBENE_1
 62
     7
100
AcDbHatch
 10
0.0
 20
0.0
 30
0.0
210
0.0
220
0.0
230
1.0
  2
SOLID
 70
     1
 71
     0
 91
        1
 92
        3
 72
     0
 73
     1
 93
        3
 10
-20.704679361979164
 20
-94.229907226562489
 10
-20.704679361979164
 20
-96.007921006944429
 10
-15.45521511501736
 20
-95.076367187499997
 97
        0
 75
     0
 76
     1
 98
        1
 10
0.0
 20
0.0
  0
LINE
  5
283
100
AcDbEntity
  8
EBENE_1
 62
     7
100
AcDbLine
 10
-28.578617
 20
-89.319268
 30
0.0
 11
-28.155215
 21
-89.149769
 31
0.0
  0
LINE
  5
282
100
AcDbEntity
  8
EBENE_1
 62
     7
100
AcDbLine
 10
-28.155215
 20
-89.149769
 30
0.0
 11
-27.393332
 21
-88.387714
 31
0.0
  0
LINE
  5
281
100
AcDbEntity
  8
EBENE_1
 62
     7
100
AcDbLine
 10
-27.393332
 20
-88.387714
 30
0.0
 11
-27.393332
 21
-93.637351
 31
0.0
  0
LINE
  5
280
100
AcDbEntity
  8
EBENE_1
 62
     7
100
AcDbLine
 10
-21.381985
 20
-90.081323
 30
0.0
 11
-21.635889
 21
-90.843034
 31
0.0
  0
LINE
  5
27F
100
AcDbEntity
  8
EBENE_1
 62
     7
100
AcDbLine
 10
-21.635889
 20
-90.843034
 30
0.0
 11
-22.14404
 21
-91.351185
 31
0.0
  0
LINE
  5
27E
100
AcDbEntity
  8
EBENE_1
 62
     7
100
AcDbLine
 10
-22.14404
 20
-91.351185
 30
0.0
 11
-22.905923
 21
-91.605089
 31
0.0
  0
LINE
  5
27D
100
AcDbEntity
  8
EBENE_1
 62
     7
100
AcDbLine
 10
-22.905923
 20
-91.605089
 30
0.0
 11
-23.159999
 21
-91.605089
 31
0.0
  0
LINE
  5
27C
100
AcDbEntity
  8
EBENE_1
 62
     7
100
AcDbLine
 10
-23.159999
 20
-91.605089
 30
0.0
 11
-23.837305
 21
-91.351185
 31
0.0
  0
LINE
  5
27B
100
AcDbEntity
  8
EBENE_1
 62
     7
100
AcDbLine
 10
-23.837305
 20
-91.351185
 30
0.0
 11
-24.345284
 21
-90.843034
 31
0.0
  0
LINE
  5
27A
100
AcDbEntity
  8
EBENE_1
 62
     7
100
AcDbLine
 10
-24.345284
 20
-90.843034
 30
0.0
 11
-24.59936
 21
-90.081323
 31
0.0
  0
LINE
  5
279
100
AcDbEntity
  8
EBENE_1
 62
     7
100
AcDbLine
 10
-24.59936
 20
-90.081323
 30
0.0
 11
-24.59936
 21
-89.827075
 31
0.0
  0
LINE
  5
278
100
AcDbEntity
  8
EBENE_1
 62
     7
100
AcDbLine
 10
-24.59936
 20
-89.827075
 30
0.0
 11
-24.345284
 21
-89.149769
 31
0.0
  0
LINE
  5
277
100
AcDbEntity
  8
EBENE_1
 62
     7
100
AcDbLine
 10
-24.345284
 20
-89.149769
 30
0.0
 11
-23.837305
 21
-88.641962
 31
0.0
  0
LINE
  5
276
100
AcDbEntity
  8
EBENE_1
 62
     7
100
AcDbLine
 10
-23.837305
 20
-88.641962
 30
0.0
 11
-23.159999
 21
-88.387714
 31
0.0
  0
LINE
  5
275
100
AcDbEntity
  8
EBENE_1
 62
     7
100
AcDbLine
 10
-23.159999
 20
-88.387714
 30
0.0
 11
-22.905923
 21
-88.387714
 31
0.0
  0
LINE
  5
274
100
AcDbEntity
  8
EBENE_1
 62
     7
100
AcDbLine
 10
-22.905923
 20
-88.387714
 30
0.0
 11
-22.14404
 21
-88.641962
 31
0.0
  0
LINE
  5
273
100
AcDbEntity
  8
EBENE_1
 62
     7
100
AcDbLine
 10
-22.14404
 20
-88.641962
 30
0.0
 11
-21.635889
 21
-89.149769
 31
0.0
  0
LINE
  5
272
100
AcDbEntity
  8
EBENE_1
 62
     7
100
AcDbLine
 10
-21.635889
 20
-89.149769
 30
0.0
 11
-21.381985
 21
-90.081323
 31
0.0
  0
LINE
  5
271
100
AcDbEntity
  8
EBENE_1
 62
     7
100
AcDbLine
 10
-21.381985
 20
-90.081323
 30
0.0
 11
-21.381985
 21
-91.351185
 31
0.0
  0
LINE
  5
270
100
AcDbEntity
  8
EBENE_1
 62
     7
100
AcDbLine
 10
-21.381985
 20
-91.351185
 30
0.0
 11
-21.635889
 21
-92.621048
 31
0.0
  0
LINE
  5
26F
100
AcDbEntity
  8
EBENE_1
 62
     7
100
AcDbLine
 10
-21.635889
 20
-92.621048
 30
0.0
 11
-22.14404
 21
-93.383103
 31
0.0
  0
LINE
  5
26E
100
AcDbEntity
  8
EBENE_1
 62
     7
100
AcDbLine
 10
-22.14404
 20
-93.383103
 30
0.0
 11
-22.905923
 21
-93.637351
 31
0.0
  0
LINE
  5
26D
100
AcDbEntity
  8
EBENE_1
 62
     7
100
AcDbLine
 10
-22.905923
 20
-93.637351
 30
0.0
 11
-23.329325
 21
-93.637351
 31
0.0
  0
LINE
  5
26C
100
AcDbEntity
  8
EBENE_1
 62
     7
100
AcDbLine
 10
-23.329325
 20
-93.637351
 30
0.0
 11
-24.09138
 21
-93.383103
 31
0.0
  0
LINE
  5
26B
100
AcDbEntity
  8
EBENE_1
 62
     7
100
AcDbLine
 10
-24.09138
 20
-93.383103
 30
0.0
 11
-24.345284
 21
-92.875296
 31
0.0
  0
LINE
  5
26A
100
AcDbEntity
  8
EBENE_1
 62
     7
100
AcDbLine
 10
-24.345284
 20
-92.875296
 30
0.0
 11
-24.345284
 21
-92.875296
 31
0.0
  0
LINE
  5
269
100
AcDbEntity
  8
EBENE_1
 62
     7
100
AcDbLine
 10
-33.235353
 20
-78.651185
 30
0.0
 11
-29.763902
 21
-75.433811
 31
0.0
  0
LINE
  5
268
100
AcDbEntity
  8
EBENE_1
 62
     7
100
AcDbLine
 10
-29.763902
 20
-75.433811
 30
0.0
 11
-26.5467
 21
-71.877783
 31
0.0
  0
LINE
  5
267
100
AcDbEntity
  8
EBENE_1
 62
     7
100
AcDbLine
 10
-26.5467
 20
-71.877783
 30
0.0
 11
-23.583229
 21
-68.152601
 31
0.0
  0
LINE
  5
266
100
AcDbEntity
  8
EBENE_1
 62
     7
100
AcDbLine
 10
-23.583229
 20
-68.152601
 30
0.0
 11
-20.958583
 21
-64.173172
 31
0.0
  0
LINE
  5
265
100
AcDbEntity
  8
EBENE_1
 62
     7
100
AcDbLine
 10
-20.958583
 20
-64.173172
 30
0.0
 11
-18.588013
 21
-60.024588
 31
0.0
  0
LINE
  5
264
100
AcDbEntity
  8
EBENE_1
 62
     7
100
AcDbLine
 10
-18.588013
 20
-60.024588
 30
0.0
 11
-16.640672
 21
-55.706505
 31
0.0
  0
LINE
  5
263
100
AcDbEntity
  8
EBENE_1
 62
     7
100
AcDbLine
 10
-16.640672
 20
-55.706505
 30
0.0
 11
-15.031985
 21
-51.219268
 31
0.0
  0
LINE
  5
262
100
AcDbEntity
  8
EBENE_1
 62
     7
100
AcDbLine
 10
-15.031985
 20
-51.219268
 30
0.0
 11
-13.761951
 21
-46.647282
 31
0.0
  0
LINE
  5
261
100
AcDbEntity
  8
EBENE_1
 62
     7
100
AcDbLine
 10
-15.455215
 20
-69.676367
 30
0.0
 11
-15.624714
 21
-69.083811
 31
0.0
  0
LINE
  5
260
100
AcDbEntity
  8
EBENE_1
 62
     7
100
AcDbLine
 10
-15.624714
 20
-69.083811
 30
0.0
 11
-15.963367
 21
-68.576004
 31
0.0
  0
LINE
  5
25F
100
AcDbEntity
  8
EBENE_1
 62
     7
100
AcDbLine
 10
-15.963367
 20
-68.576004
 30
0.0
 11
-16.386597
 21
-68.237351
 31
0.0
  0
LINE
  5
25E
100
AcDbEntity
  8
EBENE_1
 62
     7
100
AcDbLine
 10
-16.386597
 20
-68.237351
 30
0.0
 11
-16.979325
 21
-68.152601
 31
0.0
  0
LINE
  5
25D
100
AcDbEntity
  8
EBENE_1
 62
     7
100
AcDbLine
 10
-34.505215
 20
-78.651185
 30
0.0
 11
-33.235353
 21
-78.651185
 31
0.0
  0
LINE
  5
25C
100
AcDbEntity
  8
EBENE_1
 62
     7
100
AcDbLine
 10
-24.006631
 20
-79.159337
 30
0.0
 11
-16.979325
 21
-79.159337
 31
0.0
  0
LINE
  5
25B
100
AcDbEntity
  8
EBENE_1
 62
     7
100
AcDbLine
 10
-29.509999
 20
-75.179907
 30
0.0
 11
-26.96993
 21
-75.179907
 31
0.0
  0
LINE
  5
25A
100
AcDbEntity
  8
EBENE_1
 62
     7
100
AcDbLine
 10
-25.530569
 20
-76.619268
 30
0.0
 11
-25.530569
 21
-77.635227
 31
0.0
  0
LINE
  5
259
100
AcDbEntity
  8
EBENE_1
 62
     7
100
AcDbLine
 10
-25.530569
 20
-77.635227
 30
0.0
 11
-25.361243
 21
-78.227783
 31
0.0
  0
LINE
  5
258
100
AcDbEntity
  8
EBENE_1
 62
     7
100
AcDbLine
 10
-25.361243
 20
-78.227783
 30
0.0
 11
-25.02259
 21
-78.735935
 31
0.0
  0
LINE
  5
257
100
AcDbEntity
  8
EBENE_1
 62
     7
100
AcDbLine
 10
-25.02259
 20
-78.735935
 30
0.0
 11
-24.59936
 21
-78.989838
 31
0.0
  0
LINE
  5
256
100
AcDbEntity
  8
EBENE_1
 62
     7
100
AcDbLine
 10
-24.59936
 20
-78.989838
 30
0.0
 11
-24.006631
 21
-79.159337
 31
0.0
  0
LINE
  5
255
100
AcDbEntity
  8
EBENE_1
 62
     7
100
AcDbLine
 10
-25.530569
 20
-76.619268
 30
0.0
 11
-25.615318
 21
-76.026367
 31
0.0
  0
LINE
  5
254
100
AcDbEntity
  8
EBENE_1
 62
     7
100
AcDbLine
 10
-25.615318
 20
-76.026367
 30
0.0
 11
-25.953971
 21
-75.603309
 31
0.0
  0
LINE
  5
253
100
AcDbEntity
  8
EBENE_1
 62
     7
100
AcDbLine
 10
-25.953971
 20
-75.603309
 30
0.0
 11
-26.377374
 21
-75.264657
 31
0.0
  0
LINE
  5
252
100
AcDbEntity
  8
EBENE_1
 62
     7
100
AcDbLine
 10
-26.377374
 20
-75.264657
 30
0.0
 11
-26.96993
 21
-75.179907
 31
0.0
  0
LINE
  5
251
100
AcDbEntity
  8
EBENE_1
 62
     7
100
AcDbLine
 10
-16.979325
 20
-79.159337
 30
0.0
 11
-16.386597
 21
-78.989838
 31
0.0
  0
LINE
  5
250
100
AcDbEntity
  8
EBENE_1
 62
     7
100
AcDbLine
 10
-16.386597
 20
-78.989838
 30
0.0
 11
-15.963367
 21
-78.735935
 31
0.0
  0
LINE
  5
24F
100
AcDbEntity
  8
EBENE_1
 62
     7
100
AcDbLine
 10
-15.963367
 20
-78.735935
 30
0.0
 11
-15.624714
 21
-78.227783
 31
0.0
  0
LINE
  5
24E
100
AcDbEntity
  8
EBENE_1
 62
     7
100
AcDbLine
 10
-15.624714
 20
-78.227783
 30
0.0
 11
-15.455215
 21
-77.635227
 31
0.0
  0
LINE
  5
24D
100
AcDbEntity
  8
EBENE_1
 62
     7
100
AcDbLine
 10
-15.455215
 20
-69.676367
 30
0.0
 11
-15.455215
 21
-77.635227
 31
0.0
  0
LINE
  5
24C
100
AcDbEntity
  8
EBENE_1
 62
     7
100
AcDbLine
 10
-23.583229
 20
-68.152601
 30
0.0
 11
-16.979325
 21
-68.152601
 31
0.0
  0
LINE
  5
24B
100
AcDbEntity
  8
EBENE_1
 62
     7
100
AcDbLine
 10
-13.761951
 20
-46.647282
 30
0.0
 11
-12.491916
 21
-46.647282
 31
0.0
  0
LINE
  5
24A
100
AcDbEntity
  8
EBENE_1
 62
     7
100
AcDbLine
 10
57.612332
 20
-78.651185
 30
0.0
 11
46.605252
 21
-78.651185
 31
0.0
  0
LINE
  5
249
100
AcDbEntity
  8
EBENE_1
 62
     7
100
AcDbLine
 10
53.378998
 20
-79.159337
 30
0.0
 11
50.838585
 21
-79.159337
 31
0.0
  0
LINE
  5
248
100
AcDbEntity
  8
EBENE_1
 62
     7
100
AcDbLine
 10
50.838585
 20
-78.651185
 30
0.0
 11
50.838585
 21
-79.159337
 31
0.0
  0
LINE
  5
247
100
AcDbEntity
  8
EBENE_1
 62
     7
100
AcDbLine
 10
53.378998
 20
-78.651185
 30
0.0
 11
53.378998
 21
-79.159337
 31
0.0
  0
LINE
  5
246
100
AcDbEntity
  8
EBENE_1
 62
     7
100
AcDbLine
 10
-25.530569
 20
3.390663
 30
0.0
 11
-25.530569
 21
0.766189
 31
0.0
  0
LINE
  5
245
100
AcDbEntity
  8
EBENE_1
 62
     7
100
AcDbLine
 10
-25.530569
 20
-0.419268
 30
0.0
 11
-25.530569
 21
-0.419268
 31
0.0
  0
LINE
  5
244
100
AcDbEntity
  8
EBENE_1
 62
     7
100
AcDbLine
 10
-25.530569
 20
-1.68913
 30
0.0
 11
-25.530569
 21
-4.229199
 31
0.0
  0
LINE
  5
243
100
AcDbEntity
  8
EBENE_1
 62
     7
100
AcDbLine
 10
-25.530569
 20
-4.229199
 30
0.0
 11
-25.530569
 21
-4.229199
 31
0.0
  0
LINE
  5
242
100
AcDbEntity
  8
EBENE_1
 62
     7
100
AcDbLine
 10
-29.00202
 20
6.862286
 30
0.0
 11
-29.00202
 21
-0.16502
 31
0.0
  0
LINE
  5
241
100
AcDbEntity
  8
EBENE_1
 62
     7
100
AcDbLine
 10
-21.974714
 20
6.862286
 30
0.0
 11
-21.974714
 21
-0.16502
 31
0.0
  0
LINE
  5
240
100
AcDbEntity
  8
EBENE_1
 62
     7
100
AcDbLine
 10
-19.858047
 20
3.390663
 30
0.0
 11
-20.027374
 21
4.57612
 31
0.0
  0
LINE
  5
23F
100
AcDbEntity
  8
EBENE_1
 62
     7
100
AcDbLine
 10
-20.027374
 20
4.57612
 30
0.0
 11
-20.450604
 21
5.761578
 31
0.0
  0
LINE
  5
23E
100
AcDbEntity
  8
EBENE_1
 62
     7
100
AcDbLine
 10
-20.450604
 20
5.761578
 30
0.0
 11
-21.127909
 21
6.862286
 31
0.0
  0
LINE
  5
23D
100
AcDbEntity
  8
EBENE_1
 62
     7
100
AcDbLine
 10
-21.127909
 20
6.862286
 30
0.0
 11
-21.974714
 21
7.708746
 31
0.0
  0
LINE
  5
23C
100
AcDbEntity
  8
EBENE_1
 62
     7
100
AcDbLine
 10
-21.974714
 20
7.708746
 30
0.0
 11
-23.07525
 21
8.386051
 31
0.0
  0
LINE
  5
23B
100
AcDbEntity
  8
EBENE_1
 62
     7
100
AcDbLine
 10
-23.07525
 20
8.386051
 30
0.0
 11
-24.260707
 21
8.809454
 31
0.0
  0
LINE
  5
23A
100
AcDbEntity
  8
EBENE_1
 62
     7
100
AcDbLine
 10
-24.260707
 20
8.809454
 30
0.0
 11
-25.530569
 21
8.978952
 31
0.0
  0
LINE
  5
239
100
AcDbEntity
  8
EBENE_1
 62
     7
100
AcDbLine
 10
-25.530569
 20
8.978952
 30
0.0
 11
-26.716026
 21
8.809454
 31
0.0
  0
LINE
  5
238
100
AcDbEntity
  8
EBENE_1
 62
     7
100
AcDbLine
 10
-26.716026
 20
8.809454
 30
0.0
 11
-27.901312
 21
8.386051
 31
0.0
  0
LINE
  5
237
100
AcDbEntity
  8
EBENE_1
 62
     7
100
AcDbLine
 10
-27.901312
 20
8.386051
 30
0.0
 11
-29.00202
 21
7.708746
 31
0.0
  0
LINE
  5
236
100
AcDbEntity
  8
EBENE_1
 62
     7
100
AcDbLine
 10
-29.00202
 20
7.708746
 30
0.0
 11
-29.848652
 21
6.862286
 31
0.0
  0
LINE
  5
235
100
AcDbEntity
  8
EBENE_1
 62
     7
100
AcDbLine
 10
-29.848652
 20
6.862286
 30
0.0
 11
-30.525958
 21
5.761578
 31
0.0
  0
LINE
  5
234
100
AcDbEntity
  8
EBENE_1
 62
     7
100
AcDbLine
 10
-30.525958
 20
5.761578
 30
0.0
 11
-30.94936
 21
4.57612
 31
0.0
  0
LINE
  5
233
100
AcDbEntity
  8
EBENE_1
 62
     7
100
AcDbLine
 10
-30.94936
 20
4.57612
 30
0.0
 11
-31.118686
 21
3.390663
 31
0.0
  0
LINE
  5
232
100
AcDbEntity
  8
EBENE_1
 62
     7
100
AcDbLine
 10
-31.118686
 20
3.390663
 30
0.0
 11
-30.94936
 21
2.120801
 31
0.0
  0
LINE
  5
231
100
AcDbEntity
  8
EBENE_1
 62
     7
100
AcDbLine
 10
-30.94936
 20
2.120801
 30
0.0
 11
-30.525958
 21
0.935343
 31
0.0
  0
LINE
  5
230
100
AcDbEntity
  8
EBENE_1
 62
     7
100
AcDbLine
 10
-30.525958
 20
0.935343
 30
0.0
 11
-29.848652
 21
-0.16502
 31
0.0
  0
LINE
  5
22F
100
AcDbEntity
  8
EBENE_1
 62
     7
100
AcDbLine
 10
-29.848652
 20
-0.16502
 30
0.0
 11
-29.00202
 21
-1.011825
 31
0.0
  0
LINE
  5
22E
100
AcDbEntity
  8
EBENE_1
 62
     7
100
AcDbLine
 10
-29.00202
 20
-1.011825
 30
0.0
 11
-27.901312
 21
-1.68913
 31
0.0
  0
LINE
  5
22D
100
AcDbEntity
  8
EBENE_1
 62
     7
100
AcDbLine
 10
-27.901312
 20
-1.68913
 30
0.0
 11
-26.716026
 21
-2.112533
 31
0.0
  0
LINE
  5
22C
100
AcDbEntity
  8
EBENE_1
 62
     7
100
AcDbLine
 10
-26.716026
 20
-2.112533
 30
0.0
 11
-25.530569
 21
-2.281687
 31
0.0
  0
LINE
  5
22B
100
AcDbEntity
  8
EBENE_1
 62
     7
100
AcDbLine
 10
-25.530569
 20
-2.281687
 30
0.0
 11
-24.260707
 21
-2.112533
 31
0.0
  0
LINE
  5
22A
100
AcDbEntity
  8
EBENE_1
 62
     7
100
AcDbLine
 10
-24.260707
 20
-2.112533
 30
0.0
 11
-23.07525
 21
-1.68913
 31
0.0
  0
LINE
  5
229
100
AcDbEntity
  8
EBENE_1
 62
     7
100
AcDbLine
 10
-23.07525
 20
-1.68913
 30
0.0
 11
-21.974714
 21
-1.011825
 31
0.0
  0
LINE
  5
228
100
AcDbEntity
  8
EBENE_1
 62
     7
100
AcDbLine
 10
-21.974714
 20
-1.011825
 30
0.0
 11
-21.127909
 21
-0.16502
 31
0.0
  0
LINE
  5
227
100
AcDbEntity
  8
EBENE_1
 62
     7
100
AcDbLine
 10
-21.127909
 20
-0.16502
 30
0.0
 11
-20.450604
 21
0.935343
 31
0.0
  0
LINE
  5
226
100
AcDbEntity
  8
EBENE_1
 62
     7
100
AcDbLine
 10
-20.450604
 20
0.935343
 30
0.0
 11
-20.027374
 21
2.120801
 31
0.0
  0
LINE
  5
225
100
AcDbEntity
  8
EBENE_1
 62
     7
100
AcDbLine
 10
-20.027374
 20
2.120801
 30
0.0
 11
-19.858047
 21
3.390663
 31
0.0
  0
LINE
  5
224
100
AcDbEntity
  8
EBENE_1
 62
     7
100
AcDbLine
 10
-42.717978
 20
0.173633
 30
0.0
 11
-40.262659
 21
3.05201
 31
0.0
  0
LINE
  5
223
100
AcDbEntity
  8
EBENE_1
 62
     7
100
AcDbLine
 10
-40.262659
 20
3.05201
 30
0.0
 11
-38.230569
 21
6.100231
 31
0.0
  0
LINE
  5
222
100
AcDbEntity
  8
EBENE_1
 62
     7
100
AcDbLine
 10
-38.230569
 20
6.100231
 30
0.0
 11
-36.452555
 21
9.40201
 31
0.0
  0
LINE
  5
221
100
AcDbEntity
  8
EBENE_1
 62
     7
100
AcDbLine
 10
-36.452555
 20
9.40201
 30
0.0
 11
-35.097944
 21
12.788883
 31
0.0
  0
LINE
  5
220
100
AcDbEntity
  8
EBENE_1
 62
     7
100
AcDbLine
 10
-20.027374
 20
-18.114657
 30
0.0
 11
-0.384645
 21
-18.114657
 31
0.0
  0
LINE
  5
21F
100
AcDbEntity
  8
EBENE_1
 62
     7
100
AcDbLine
 10
-16.386597
 20
3.390663
 30
0.0
 11
-0.384645
 21
3.390663
 31
0.0
  0
LINE
  5
21E
100
AcDbEntity
  8
EBENE_1
 62
     7
100
AcDbLine
 10
-1.1467
 20
-12.86502
 30
0.0
 11
-1.1467
 21
-1.858629
 31
0.0
  0
POLYLINE
  5
219
100
AcDbEntity
  8
EBENE_1
 62
     7
100
AcDb2dPolyline
 66
     1
 10
0.0
 20
0.0
 30
0.0
 70
     1
  0
VERTEX
  5
21A
100
AcDbEntity
  8
EBENE_1
 62
     7
100
AcDbVertex
100
AcDb2dVertex
 10
-1.993332
 20
-12.86502
 30
0.0
  0
VERTEX
  5
21B
100
AcDbEntity
  8
EBENE_1
 62
     7
100
AcDbVertex
100
AcDb2dVertex
 10
-0.215318
 20
-12.86502
 30
0.0
  0
VERTEX
  5
21C
100
AcDbEntity
  8
EBENE_1
 62
     7
100
AcDbVertex
100
AcDb2dVertex
 10
-1.1467
 20
-18.114657
 30
0.0
  0
SEQEND
  5
21D
100
AcDbEntity
  8
EBENE_1
 62
     7
  0
HATCH
  5
218
100
AcDbEntity
  8
EBENE_1
 62
     7
100
AcDbHatch
 10
0.0
 20
0.0
 30
0.0
210
0.0
220
0.0
230
1.0
  2
SOLID
 70
     1
 71
     0
 91
        1
 92
        3
 72
     0
 73
     1
 93
        3
 10
-1.9933322482638887
 20
-12.865020073784722
 10
-0.2153184678819444
 20
-12.865020073784722
 10
-1.1467000325520833
 20
-18.114656575520833
 97
        0
 75
     0
 76
     1
 98
        1
 10
0.0
 20
0.0
  0
POLYLINE
  5
213
100
AcDbEntity
  8
EBENE_1
 62
     7
100
AcDb2dPolyline
 66
     1
 10
0.0
 20
0.0
 30
0.0
 70
     1
  0
VERTEX
  5
214
100
AcDbEntity
  8
EBENE_1
 62
     7
100
AcDbVertex
100
AcDb2dVertex
 10
-1.993332
 20
-1.858629
 30
0.0
  0
VERTEX
  5
215
100
AcDbEntity
  8
EBENE_1
 62
     7
100
AcDbVertex
100
AcDb2dVertex
 10
-0.215318
 20
-1.858629
 30
0.0
  0
VERTEX
  5
216
100
AcDbEntity
  8
EBENE_1
 62
     7
100
AcDbVertex
100
AcDb2dVertex
 10
-1.1467
 20
3.390663
 30
0.0
  0
SEQEND
  5
217
100
AcDbEntity
  8
EBENE_1
 62
     7
  0
HATCH
  5
212
100
AcDbEntity
  8
EBENE_1
 62
     7
100
AcDbHatch
 10
0.0
 20
0.0
 30
0.0
210
0.0
220
0.0
230
1.0
  2
SOLID
 70
     1
 71
     0
 91
        1
 92
        3
 72
     0
 73
     1
 93
        3
 10
-1.9933322482638887
 20
-1.8586290147569442
 10
-0.2153184678819444
 20
-1.8586290147569442
 10
-1.1467000325520833
 20
3.3906629774305554
 97
        0
 75
     0
 76
     1
 98
        1
 10
0.0
 20
0.0
  0
LINE
  5
211
100
AcDbEntity
  8
EBENE_1
 62
     7
100
AcDbLine
 10
-6.649896
 20
-14.643034
 30
0.0
 11
-6.903971
 21
-14.643034
 31
0.0
  0
LINE
  5
210
100
AcDbEntity
  8
EBENE_1
 62
     7
100
AcDbLine
 10
-6.903971
 20
-14.643034
 30
0.0
 11
-7.411951
 21
-14.38913
 31
0.0
  0
LINE
  5
20F
100
AcDbEntity
  8
EBENE_1
 62
     7
100
AcDbLine
 10
-7.411951
 20
-14.38913
 30
0.0
 11
-7.666026
 21
-14.135227
 31
0.0
  0
LINE
  5
20E
100
AcDbEntity
  8
EBENE_1
 62
     7
100
AcDbLine
 10
-7.666026
 20
-14.135227
 30
0.0
 11
-7.835353
 21
-13.627075
 31
0.0
  0
LINE
  5
20D
100
AcDbEntity
  8
EBENE_1
 62
     7
100
AcDbLine
 10
-7.835353
 20
-13.627075
 30
0.0
 11
-7.835353
 21
-12.611117
 31
0.0
  0
LINE
  5
20C
100
AcDbEntity
  8
EBENE_1
 62
     7
100
AcDbLine
 10
-7.835353
 20
-12.611117
 30
0.0
 11
-7.666026
 21
-12.103309
 31
0.0
  0
LINE
  5
20B
100
AcDbEntity
  8
EBENE_1
 62
     7
100
AcDbLine
 10
-7.666026
 20
-12.103309
 30
0.0
 11
-7.411951
 21
-11.933811
 31
0.0
  0
LINE
  5
20A
100
AcDbEntity
  8
EBENE_1
 62
     7
100
AcDbLine
 10
-7.411951
 20
-11.933811
 30
0.0
 11
-6.903971
 21
-11.679907
 31
0.0
  0
LINE
  5
209
100
AcDbEntity
  8
EBENE_1
 62
     7
100
AcDbLine
 10
-6.903971
 20
-11.679907
 30
0.0
 11
-6.395992
 21
-11.679907
 31
0.0
  0
LINE
  5
208
100
AcDbEntity
  8
EBENE_1
 62
     7
100
AcDbLine
 10
-6.395992
 20
-11.679907
 30
0.0
 11
-5.888013
 21
-11.933811
 31
0.0
  0
LINE
  5
207
100
AcDbEntity
  8
EBENE_1
 62
     7
100
AcDbLine
 10
-5.888013
 20
-11.933811
 30
0.0
 11
-5.125958
 21
-12.357213
 31
0.0
  0
LINE
  5
206
100
AcDbEntity
  8
EBENE_1
 62
     7
100
AcDbLine
 10
-5.125958
 20
-12.357213
 30
0.0
 11
-2.670638
 21
-14.897282
 31
0.0
  0
LINE
  5
205
100
AcDbEntity
  8
EBENE_1
 62
     7
100
AcDbLine
 10
-2.670638
 20
-14.897282
 30
0.0
 11
-2.670638
 21
-11.426004
 31
0.0
  0
LINE
  5
204
100
AcDbEntity
  8
EBENE_1
 62
     7
100
AcDbLine
 10
-6.903971
 20
-9.901893
 30
0.0
 11
-7.158047
 21
-9.393742
 31
0.0
  0
LINE
  5
203
100
AcDbEntity
  8
EBENE_1
 62
     7
100
AcDbLine
 10
-7.158047
 20
-9.393742
 30
0.0
 11
-7.835353
 21
-8.631687
 31
0.0
  0
LINE
  5
202
100
AcDbEntity
  8
EBENE_1
 62
     7
100
AcDbLine
 10
-7.835353
 20
-8.631687
 30
0.0
 11
-2.670638
 21
-8.631687
 31
0.0
  0
LINE
  5
201
100
AcDbEntity
  8
EBENE_1
 62
     7
100
AcDbLine
 10
-3.09404
 20
-5.66856
 30
0.0
 11
-2.839964
 21
-5.922464
 31
0.0
  0
LINE
  5
200
100
AcDbEntity
  8
EBENE_1
 62
     7
100
AcDbLine
 10
-2.839964
 20
-5.922464
 30
0.0
 11
-2.670638
 21
-5.66856
 31
0.0
  0
LINE
  5
1FF
100
AcDbEntity
  8
EBENE_1
 62
     7
100
AcDbLine
 10
-2.670638
 20
-5.66856
 30
0.0
 11
-2.839964
 21
-5.414657
 31
0.0
  0
LINE
  5
1FE
100
AcDbEntity
  8
EBENE_1
 62
     7
100
AcDbLine
 10
-7.835353
 20
-0.419268
 30
0.0
 11
-7.835353
 21
-2.874588
 31
0.0
  0
LINE
  5
1FD
100
AcDbEntity
  8
EBENE_1
 62
     7
100
AcDbLine
 10
-7.835353
 20
-2.874588
 30
0.0
 11
-5.633937
 21
-3.128491
 31
0.0
  0
LINE
  5
1FC
100
AcDbEntity
  8
EBENE_1
 62
     7
100
AcDbLine
 10
-5.633937
 20
-3.128491
 30
0.0
 11
-5.888013
 21
-2.874588
 31
0.0
  0
LINE
  5
1FB
100
AcDbEntity
  8
EBENE_1
 62
     7
100
AcDbLine
 10
-5.888013
 20
-2.874588
 30
0.0
 11
-6.141916
 21
-2.112533
 31
0.0
  0
LINE
  5
1FA
100
AcDbEntity
  8
EBENE_1
 62
     7
100
AcDbLine
 10
-6.141916
 20
-2.112533
 30
0.0
 11
-6.141916
 21
-1.435227
 31
0.0
  0
LINE
  5
1F9
100
AcDbEntity
  8
EBENE_1
 62
     7
100
AcDbLine
 10
-6.141916
 20
-1.435227
 30
0.0
 11
-5.888013
 21
-0.673172
 31
0.0
  0
LINE
  5
1F8
100
AcDbEntity
  8
EBENE_1
 62
     7
100
AcDbLine
 10
-5.888013
 20
-0.673172
 30
0.0
 11
-5.380033
 21
-0.16502
 31
0.0
  0
LINE
  5
1F7
100
AcDbEntity
  8
EBENE_1
 62
     7
100
AcDbLine
 10
-5.380033
 20
-0.16502
 30
0.0
 11
-4.617978
 21
0.088883
 31
0.0
  0
LINE
  5
1F6
100
AcDbEntity
  8
EBENE_1
 62
     7
100
AcDbLine
 10
-4.617978
 20
0.088883
 30
0.0
 11
-4.109999
 21
0.088883
 31
0.0
  0
LINE
  5
1F5
100
AcDbEntity
  8
EBENE_1
 62
     7
100
AcDbLine
 10
-4.109999
 20
0.088883
 30
0.0
 11
-3.347944
 21
-0.16502
 31
0.0
  0
LINE
  5
1F4
100
AcDbEntity
  8
EBENE_1
 62
     7
100
AcDbLine
 10
-3.347944
 20
-0.16502
 30
0.0
 11
-2.839964
 21
-0.673172
 31
0.0
  0
LINE
  5
1F3
100
AcDbEntity
  8
EBENE_1
 62
     7
100
AcDbLine
 10
-2.839964
 20
-0.673172
 30
0.0
 11
-2.670638
 21
-1.435227
 31
0.0
  0
LINE
  5
1F2
100
AcDbEntity
  8
EBENE_1
 62
     7
100
AcDbLine
 10
-2.670638
 20
-1.435227
 30
0.0
 11
-2.670638
 21
-2.112533
 31
0.0
  0
LINE
  5
1F1
100
AcDbEntity
  8
EBENE_1
 62
     7
100
AcDbLine
 10
-2.670638
 20
-2.112533
 30
0.0
 11
-2.839964
 21
-2.874588
 31
0.0
  0
LINE
  5
1F0
100
AcDbEntity
  8
EBENE_1
 62
     7
100
AcDbLine
 10
-2.839964
 20
-2.874588
 30
0.0
 11
-3.09404
 21
-3.128491
 31
0.0
  0
LINE
  5
1EF
100
AcDbEntity
  8
EBENE_1
 62
     7
100
AcDbLine
 10
-3.09404
 20
-3.128491
 30
0.0
 11
-3.60202
 21
-3.382395
 31
0.0
  0
LINE
  5
1EE
100
AcDbEntity
  8
EBENE_1
 62
     7
100
AcDbLine
 10
-3.60202
 20
-3.382395
 30
0.0
 11
-3.60202
 21
-3.382395
 31
0.0
  0
LINE
  5
1ED
100
AcDbEntity
  8
EBENE_1
 62
     7
100
AcDbLine
 10
-25.530569
 20
-18.114657
 30
0.0
 11
-25.530569
 21
-22.178491
 31
0.0
  0
LINE
  5
1EC
100
AcDbEntity
  8
EBENE_1
 62
     7
100
AcDbLine
 10
-28.578617
 20
-21.416436
 30
0.0
 11
-27.647236
 21
-22.093742
 31
0.0
  0
LINE
  5
1EB
100
AcDbEntity
  8
EBENE_1
 62
     7
100
AcDbLine
 10
-27.647236
 20
-22.093742
 30
0.0
 11
-26.631277
 21
-22.517144
 31
0.0
  0
LINE
  5
1EA
100
AcDbEntity
  8
EBENE_1
 62
     7
100
AcDbLine
 10
-26.631277
 20
-22.517144
 30
0.0
 11
-25.530569
 21
-22.601893
 31
0.0
  0
LINE
  5
1E9
100
AcDbEntity
  8
EBENE_1
 62
     7
100
AcDbLine
 10
-25.530569
 20
-22.601893
 30
0.0
 11
-24.345284
 21
-22.517144
 31
0.0
  0
LINE
  5
1E8
100
AcDbEntity
  8
EBENE_1
 62
     7
100
AcDbLine
 10
-24.345284
 20
-22.517144
 30
0.0
 11
-23.329325
 21
-22.093742
 31
0.0
  0
LINE
  5
1E7
100
AcDbEntity
  8
EBENE_1
 62
     7
100
AcDbLine
 10
-23.329325
 20
-22.093742
 30
0.0
 11
-22.397944
 21
-21.416436
 31
0.0
  0
LINE
  5
1E6
100
AcDbEntity
  8
EBENE_1
 62
     7
100
AcDbLine
 10
-20.111951
 20
-32.677075
 30
0.0
 11
-20.281277
 21
-31.576367
 31
0.0
  0
LINE
  5
1E5
100
AcDbEntity
  8
EBENE_1
 62
     7
100
AcDbLine
 10
-20.281277
 20
-31.576367
 30
0.0
 11
-20.704679
 21
-30.645158
 31
0.0
  0
LINE
  5
1E4
100
AcDbEntity
  8
EBENE_1
 62
     7
100
AcDbLine
 10
-20.704679
 20
-30.645158
 30
0.0
 11
-21.466562
 21
-29.883103
 31
0.0
  0
LINE
  5
1E3
100
AcDbEntity
  8
EBENE_1
 62
     7
100
AcDbLine
 10
-21.466562
 20
-29.883103
 30
0.0
 11
-22.482693
 21
-29.375296
 31
0.0
  0
LINE
  5
1E2
100
AcDbEntity
  8
EBENE_1
 62
     7
100
AcDbLine
 10
-22.482693
 20
-29.375296
 30
0.0
 11
-23.498652
 21
-29.205797
 31
0.0
  0
LINE
  5
1E1
100
AcDbEntity
  8
EBENE_1
 62
     7
100
AcDbLine
 10
-23.498652
 20
-29.205797
 30
0.0
 11
-24.51461
 21
-29.375296
 31
0.0
  0
LINE
  5
1E0
100
AcDbEntity
  8
EBENE_1
 62
     7
100
AcDbLine
 10
-24.51461
 20
-29.375296
 30
0.0
 11
-25.530569
 21
-29.883103
 31
0.0
  0
LINE
  5
1DF
100
AcDbEntity
  8
EBENE_1
 62
     7
100
AcDbLine
 10
-25.530569
 20
-29.883103
 30
0.0
 11
-26.208047
 21
-30.645158
 31
0.0
  0
LINE
  5
1DE
100
AcDbEntity
  8
EBENE_1
 62
     7
100
AcDbLine
 10
-26.208047
 20
-30.645158
 30
0.0
 11
-26.716026
 21
-31.576367
 31
0.0
  0
LINE
  5
1DD
100
AcDbEntity
  8
EBENE_1
 62
     7
100
AcDbLine
 10
-26.716026
 20
-31.576367
 30
0.0
 11
-26.885353
 21
-32.677075
 31
0.0
  0
LINE
  5
1DC
100
AcDbEntity
  8
EBENE_1
 62
     7
100
AcDbLine
 10
-26.885353
 20
-32.677075
 30
0.0
 11
-26.716026
 21
-33.693034
 31
0.0
  0
LINE
  5
1DB
100
AcDbEntity
  8
EBENE_1
 62
     7
100
AcDbLine
 10
-26.716026
 20
-33.693034
 30
0.0
 11
-26.208047
 21
-34.624588
 31
0.0
  0
LINE
  5
1DA
100
AcDbEntity
  8
EBENE_1
 62
     7
100
AcDbLine
 10
-26.208047
 20
-34.624588
 30
0.0
 11
-25.530569
 21
-35.386643
 31
0.0
  0
LINE
  5
1D9
100
AcDbEntity
  8
EBENE_1
 62
     7
100
AcDbLine
 10
-25.530569
 20
-35.386643
 30
0.0
 11
-24.51461
 21
-35.89445
 31
0.0
  0
LINE
  5
1D8
100
AcDbEntity
  8
EBENE_1
 62
     7
100
AcDbLine
 10
-24.51461
 20
-35.89445
 30
0.0
 11
-23.498652
 21
-36.063949
 31
0.0
  0
LINE
  5
1D7
100
AcDbEntity
  8
EBENE_1
 62
     7
100
AcDbLine
 10
-23.498652
 20
-36.063949
 30
0.0
 11
-22.482693
 21
-35.89445
 31
0.0
  0
LINE
  5
1D6
100
AcDbEntity
  8
EBENE_1
 62
     7
100
AcDbLine
 10
-22.482693
 20
-35.89445
 30
0.0
 11
-21.466562
 21
-35.386643
 31
0.0
  0
LINE
  5
1D5
100
AcDbEntity
  8
EBENE_1
 62
     7
100
AcDbLine
 10
-21.466562
 20
-35.386643
 30
0.0
 11
-20.704679
 21
-34.624588
 31
0.0
  0
LINE
  5
1D4
100
AcDbEntity
  8
EBENE_1
 62
     7
100
AcDbLine
 10
-20.704679
 20
-34.624588
 30
0.0
 11
-20.281277
 21
-33.693034
 31
0.0
  0
LINE
  5
1D3
100
AcDbEntity
  8
EBENE_1
 62
     7
100
AcDbLine
 10
-20.281277
 20
-33.693034
 30
0.0
 11
-20.111951
 21
-32.677075
 31
0.0
  0
LINE
  5
1D2
100
AcDbEntity
  8
EBENE_1
 62
     7
100
AcDbLine
 10
-23.667978
 20
-30.306505
 30
0.0
 11
-24.006631
 21
-30.476004
 31
0.0
  0
LINE
  5
1D1
100
AcDbEntity
  8
EBENE_1
 62
     7
100
AcDbLine
 10
-24.006631
 20
-30.476004
 30
0.0
 11
-24.09138
 21
-30.729907
 31
0.0
  0
LINE
  5
1D0
100
AcDbEntity
  8
EBENE_1
 62
     7
100
AcDbLine
 10
-23.667978
 20
-30.306505
 30
0.0
 11
-23.329325
 21
-30.306505
 31
0.0
  0
LINE
  5
1CF
100
AcDbEntity
  8
EBENE_1
 62
     7
100
AcDbLine
 10
-22.905923
 20
-30.729907
 30
0.0
 11
-22.990672
 21
-30.476004
 31
0.0
  0
LINE
  5
1CE
100
AcDbEntity
  8
EBENE_1
 62
     7
100
AcDbLine
 10
-22.990672
 20
-30.476004
 30
0.0
 11
-23.329325
 21
-30.306505
 31
0.0
  0
LINE
  5
1CD
100
AcDbEntity
  8
EBENE_1
 62
     7
100
AcDbLine
 10
-22.905923
 20
-30.729907
 30
0.0
 11
-22.905923
 21
-32.084519
 31
0.0
  0
LINE
  5
1CC
100
AcDbEntity
  8
EBENE_1
 62
     7
100
AcDbLine
 10
-22.905923
 20
-32.084519
 30
0.0
 11
-21.635889
 21
-32.084519
 31
0.0
  0
LINE
  5
1CB
100
AcDbEntity
  8
EBENE_1
 62
     7
100
AcDbLine
 10
-21.212659
 20
-32.423172
 30
0.0
 11
-21.297236
 21
-32.169268
 31
0.0
  0
LINE
  5
1CA
100
AcDbEntity
  8
EBENE_1
 62
     7
100
AcDbLine
 10
-21.297236
 20
-32.169268
 30
0.0
 11
-21.635889
 21
-32.084519
 31
0.0
  0
LINE
  5
1C9
100
AcDbEntity
  8
EBENE_1
 62
     7
100
AcDbLine
 10
-21.212659
 20
-32.423172
 30
0.0
 11
-21.212659
 21
-32.846574
 31
0.0
  0
LINE
  5
1C8
100
AcDbEntity
  8
EBENE_1
 62
     7
100
AcDbLine
 10
-21.635889
 20
-33.269976
 30
0.0
 11
-21.297236
 21
-33.100477
 31
0.0
  0
LINE
  5
1C7
100
AcDbEntity
  8
EBENE_1
 62
     7
100
AcDbLine
 10
-21.297236
 20
-33.100477
 30
0.0
 11
-21.212659
 21
-32.846574
 31
0.0
  0
LINE
  5
1C6
100
AcDbEntity
  8
EBENE_1
 62
     7
100
AcDbLine
 10
-21.635889
 20
-33.269976
 30
0.0
 11
-22.905923
 21
-33.269976
 31
0.0
  0
LINE
  5
1C5
100
AcDbEntity
  8
EBENE_1
 62
     7
100
AcDbLine
 10
-22.905923
 20
-33.269976
 30
0.0
 11
-22.905923
 21
-34.539838
 31
0.0
  0
LINE
  5
1C4
100
AcDbEntity
  8
EBENE_1
 62
     7
100
AcDbLine
 10
-23.329325
 20
-34.963241
 30
0.0
 11
-22.990672
 21
-34.793742
 31
0.0
  0
LINE
  5
1C3
100
AcDbEntity
  8
EBENE_1
 62
     7
100
AcDbLine
 10
-22.990672
 20
-34.793742
 30
0.0
 11
-22.905923
 21
-34.539838
 31
0.0
  0
LINE
  5
1C2
100
AcDbEntity
  8
EBENE_1
 62
     7
100
AcDbLine
 10
-23.329325
 20
-34.963241
 30
0.0
 11
-23.667978
 21
-34.963241
 31
0.0
  0
LINE
  5
1C1
100
AcDbEntity
  8
EBENE_1
 62
     7
100
AcDbLine
 10
-24.09138
 20
-34.539838
 30
0.0
 11
-24.006631
 21
-34.793742
 31
0.0
  0
LINE
  5
1C0
100
AcDbEntity
  8
EBENE_1
 62
     7
100
AcDbLine
 10
-24.006631
 20
-34.793742
 30
0.0
 11
-23.667978
 21
-34.963241
 31
0.0
  0
LINE
  5
1BF
100
AcDbEntity
  8
EBENE_1
 62
     7
100
AcDbLine
 10
-24.09138
 20
-34.539838
 30
0.0
 11
-24.09138
 21
-33.269976
 31
0.0
  0
LINE
  5
1BE
100
AcDbEntity
  8
EBENE_1
 62
     7
100
AcDbLine
 10
-24.09138
 20
-33.269976
 30
0.0
 11
-25.361243
 21
-33.269976
 31
0.0
  0
LINE
  5
1BD
100
AcDbEntity
  8
EBENE_1
 62
     7
100
AcDbLine
 10
-25.784645
 20
-32.846574
 30
0.0
 11
-25.699896
 21
-33.100477
 31
0.0
  0
LINE
  5
1BC
100
AcDbEntity
  8
EBENE_1
 62
     7
100
AcDbLine
 10
-25.699896
 20
-33.100477
 30
0.0
 11
-25.361243
 21
-33.269976
 31
0.0
  0
LINE
  5
1BB
100
AcDbEntity
  8
EBENE_1
 62
     7
100
AcDbLine
 10
-25.784645
 20
-32.846574
 30
0.0
 11
-25.784645
 21
-32.423172
 31
0.0
  0
LINE
  5
1BA
100
AcDbEntity
  8
EBENE_1
 62
     7
100
AcDbLine
 10
-25.361243
 20
-32.084519
 30
0.0
 11
-25.699896
 21
-32.169268
 31
0.0
  0
LINE
  5
1B9
100
AcDbEntity
  8
EBENE_1
 62
     7
100
AcDbLine
 10
-25.699896
 20
-32.169268
 30
0.0
 11
-25.784645
 21
-32.423172
 31
0.0
  0
LINE
  5
1B8
100
AcDbEntity
  8
EBENE_1
 62
     7
100
AcDbLine
 10
-25.361243
 20
-32.084519
 30
0.0
 11
-24.09138
 21
-32.084519
 31
0.0
  0
LINE
  5
1B7
100
AcDbEntity
  8
EBENE_1
 62
     7
100
AcDbLine
 10
-24.09138
 20
-32.084519
 30
0.0
 11
-24.09138
 21
-30.729907
 31
0.0
  0
LINE
  5
1B6
100
AcDbEntity
  8
EBENE_1
 62
     7
100
AcDbLine
 10
-34.505215
 20
-5.66856
 30
0.0
 11
-43.480033
 21
-5.66856
 31
0.0
  0
LINE
  5
1B5
100
AcDbEntity
  8
EBENE_1
 62
     7
100
AcDbLine
 10
-42.717978
 20
0.173633
 30
0.0
 11
-43.310535
 21
-0.757921
 31
0.0
  0
LINE
  5
1B4
100
AcDbEntity
  8
EBENE_1
 62
     7
100
AcDbLine
 10
-43.310535
 20
-0.757921
 30
0.0
 11
-43.480033
 21
-1.858629
 31
0.0
  0
LINE
  5
1B3
100
AcDbEntity
  8
EBENE_1
 62
     7
100
AcDbLine
 10
-43.480033
 20
-1.858629
 30
0.0
 11
-43.480033
 21
-5.66856
 31
0.0
  0
LINE
  5
1B2
100
AcDbEntity
  8
EBENE_1
 62
     7
100
AcDbLine
 10
-22.397944
 20
-14.897282
 30
0.0
 11
-23.329325
 21
-14.219976
 31
0.0
  0
LINE
  5
1B1
100
AcDbEntity
  8
EBENE_1
 62
     7
100
AcDbLine
 10
-23.329325
 20
-14.219976
 30
0.0
 11
-24.345284
 21
-13.796574
 31
0.0
  0
LINE
  5
1B0
100
AcDbEntity
  8
EBENE_1
 62
     7
100
AcDbLine
 10
-24.345284
 20
-13.796574
 30
0.0
 11
-25.530569
 21
-13.627075
 31
0.0
  0
LINE
  5
1AF
100
AcDbEntity
  8
EBENE_1
 62
     7
100
AcDbLine
 10
-25.530569
 20
-13.627075
 30
0.0
 11
-26.631277
 21
-13.796574
 31
0.0
  0
LINE
  5
1AE
100
AcDbEntity
  8
EBENE_1
 62
     7
100
AcDbLine
 10
-26.631277
 20
-13.796574
 30
0.0
 11
-27.647236
 21
-14.219976
 31
0.0
  0
LINE
  5
1AD
100
AcDbEntity
  8
EBENE_1
 62
     7
100
AcDbLine
 10
-27.647236
 20
-14.219976
 30
0.0
 11
-28.578617
 21
-14.897282
 31
0.0
  0
LINE
  5
1AC
100
AcDbEntity
  8
EBENE_1
 62
     7
100
AcDbLine
 10
-25.530569
 20
-18.114657
 30
0.0
 11
-21.466562
 21
-18.114657
 31
0.0
  0
LINE
  5
1AB
100
AcDbEntity
  8
EBENE_1
 62
     7
100
AcDbLine
 10
-22.397944
 20
-18.114657
 30
0.0
 11
-22.56727
 21
-17.183103
 31
0.0
  0
LINE
  5
1AA
100
AcDbEntity
  8
EBENE_1
 62
     7
100
AcDbLine
 10
-22.56727
 20
-17.183103
 30
0.0
 11
-22.990672
 21
-16.336643
 31
0.0
  0
LINE
  5
1A9
100
AcDbEntity
  8
EBENE_1
 62
     7
100
AcDbLine
 10
-22.990672
 20
-16.336643
 30
0.0
 11
-23.667978
 21
-15.659337
 31
0.0
  0
LINE
  5
1A8
100
AcDbEntity
  8
EBENE_1
 62
     7
100
AcDbLine
 10
-23.667978
 20
-15.659337
 30
0.0
 11
-24.51461
 21
-15.235935
 31
0.0
  0
LINE
  5
1A7
100
AcDbEntity
  8
EBENE_1
 62
     7
100
AcDbLine
 10
-24.51461
 20
-15.235935
 30
0.0
 11
-25.530569
 21
-15.066436
 31
0.0
  0
LINE
  5
1A6
100
AcDbEntity
  8
EBENE_1
 62
     7
100
AcDbLine
 10
-25.530569
 20
-15.066436
 30
0.0
 11
-26.461951
 21
-15.235935
 31
0.0
  0
LINE
  5
1A5
100
AcDbEntity
  8
EBENE_1
 62
     7
100
AcDbLine
 10
-26.461951
 20
-15.235935
 30
0.0
 11
-27.308583
 21
-15.659337
 31
0.0
  0
LINE
  5
1A4
100
AcDbEntity
  8
EBENE_1
 62
     7
100
AcDbLine
 10
-27.308583
 20
-15.659337
 30
0.0
 11
-27.985889
 21
-16.336643
 31
0.0
  0
LINE
  5
1A3
100
AcDbEntity
  8
EBENE_1
 62
     7
100
AcDbLine
 10
-27.985889
 20
-16.336643
 30
0.0
 11
-28.409291
 21
-17.183103
 31
0.0
  0
LINE
  5
1A2
100
AcDbEntity
  8
EBENE_1
 62
     7
100
AcDbLine
 10
-28.409291
 20
-17.183103
 30
0.0
 11
-28.578617
 21
-18.114657
 31
0.0
  0
LINE
  5
1A1
100
AcDbEntity
  8
EBENE_1
 62
     7
100
AcDbLine
 10
-28.578617
 20
-18.114657
 30
0.0
 11
-28.409291
 21
-19.130615
 31
0.0
  0
LINE
  5
1A0
100
AcDbEntity
  8
EBENE_1
 62
     7
100
AcDbLine
 10
-28.409291
 20
-19.130615
 30
0.0
 11
-27.985889
 21
-19.977075
 31
0.0
  0
LINE
  5
19F
100
AcDbEntity
  8
EBENE_1
 62
     7
100
AcDbLine
 10
-27.985889
 20
-19.977075
 30
0.0
 11
-27.308583
 21
-20.654381
 31
0.0
  0
LINE
  5
19E
100
AcDbEntity
  8
EBENE_1
 62
     7
100
AcDbLine
 10
-27.308583
 20
-20.654381
 30
0.0
 11
-26.461951
 21
-21.077783
 31
0.0
  0
LINE
  5
19D
100
AcDbEntity
  8
EBENE_1
 62
     7
100
AcDbLine
 10
-26.461951
 20
-21.077783
 30
0.0
 11
-25.530569
 21
-21.247282
 31
0.0
  0
LINE
  5
19C
100
AcDbEntity
  8
EBENE_1
 62
     7
100
AcDbLine
 10
-25.530569
 20
-21.247282
 30
0.0
 11
-24.51461
 21
-21.077783
 31
0.0
  0
LINE
  5
19B
100
AcDbEntity
  8
EBENE_1
 62
     7
100
AcDbLine
 10
-24.51461
 20
-21.077783
 30
0.0
 11
-23.667978
 21
-20.654381
 31
0.0
  0
LINE
  5
19A
100
AcDbEntity
  8
EBENE_1
 62
     7
100
AcDbLine
 10
-23.667978
 20
-20.654381
 30
0.0
 11
-22.990672
 21
-19.977075
 31
0.0
  0
LINE
  5
199
100
AcDbEntity
  8
EBENE_1
 62
     7
100
AcDbLine
 10
-22.990672
 20
-19.977075
 30
0.0
 11
-22.56727
 21
-19.130615
 31
0.0
  0
LINE
  5
198
100
AcDbEntity
  8
EBENE_1
 62
     7
100
AcDbLine
 10
-22.56727
 20
-19.130615
 30
0.0
 11
-22.397944
 21
-18.114657
 31
0.0
  0
LINE
  5
197
100
AcDbEntity
  8
EBENE_1
 62
     7
100
AcDbLine
 10
-25.530569
 20
-18.114657
 30
0.0
 11
-29.509999
 21
-18.114657
 31
0.0
  0
LINE
  5
196
100
AcDbEntity
  8
EBENE_1
 62
     7
100
AcDbLine
 10
-25.530569
 20
-18.114657
 30
0.0
 11
-25.530569
 21
-14.135227
 31
0.0
  0
LINE
  5
195
100
AcDbEntity
  8
EBENE_1
 62
     7
100
AcDbLine
 10
-23.921882
 20
-18.114657
 30
0.0
 11
-24.006631
 21
-17.521756
 31
0.0
  0
LINE
  5
194
100
AcDbEntity
  8
EBENE_1
 62
     7
100
AcDbLine
 10
-24.006631
 20
-17.521756
 30
0.0
 11
-24.345284
 21
-17.013949
 31
0.0
  0
LINE
  5
193
100
AcDbEntity
  8
EBENE_1
 62
     7
100
AcDbLine
 10
-24.345284
 20
-17.013949
 30
0.0
 11
-24.853263
 21
-16.675296
 31
0.0
  0
LINE
  5
192
100
AcDbEntity
  8
EBENE_1
 62
     7
100
AcDbLine
 10
-24.853263
 20
-16.675296
 30
0.0
 11
-25.530569
 21
-16.590546
 31
0.0
  0
LINE
  5
191
100
AcDbEntity
  8
EBENE_1
 62
     7
100
AcDbLine
 10
-25.530569
 20
-16.590546
 30
0.0
 11
-26.123298
 21
-16.675296
 31
0.0
  0
LINE
  5
190
100
AcDbEntity
  8
EBENE_1
 62
     7
100
AcDbLine
 10
-26.123298
 20
-16.675296
 30
0.0
 11
-26.631277
 21
-17.013949
 31
0.0
  0
LINE
  5
18F
100
AcDbEntity
  8
EBENE_1
 62
     7
100
AcDbLine
 10
-26.631277
 20
-17.013949
 30
0.0
 11
-26.96993
 21
-17.521756
 31
0.0
  0
LINE
  5
18E
100
AcDbEntity
  8
EBENE_1
 62
     7
100
AcDbLine
 10
-26.96993
 20
-17.521756
 30
0.0
 11
-27.054679
 21
-18.114657
 31
0.0
  0
LINE
  5
18D
100
AcDbEntity
  8
EBENE_1
 62
     7
100
AcDbLine
 10
-27.054679
 20
-18.114657
 30
0.0
 11
-26.96993
 21
-18.707213
 31
0.0
  0
LINE
  5
18C
100
AcDbEntity
  8
EBENE_1
 62
     7
100
AcDbLine
 10
-26.96993
 20
-18.707213
 30
0.0
 11
-26.631277
 21
-19.21502
 31
0.0
  0
LINE
  5
18B
100
AcDbEntity
  8
EBENE_1
 62
     7
100
AcDbLine
 10
-26.631277
 20
-19.21502
 30
0.0
 11
-26.123298
 21
-19.554017
 31
0.0
  0
LINE
  5
18A
100
AcDbEntity
  8
EBENE_1
 62
     7
100
AcDbLine
 10
-26.123298
 20
-19.554017
 30
0.0
 11
-25.530569
 21
-19.723172
 31
0.0
  0
LINE
  5
189
100
AcDbEntity
  8
EBENE_1
 62
     7
100
AcDbLine
 10
-25.530569
 20
-19.723172
 30
0.0
 11
-24.853263
 21
-19.554017
 31
0.0
  0
LINE
  5
188
100
AcDbEntity
  8
EBENE_1
 62
     7
100
AcDbLine
 10
-24.853263
 20
-19.554017
 30
0.0
 11
-24.345284
 21
-19.21502
 31
0.0
  0
LINE
  5
187
100
AcDbEntity
  8
EBENE_1
 62
     7
100
AcDbLine
 10
-24.345284
 20
-19.21502
 30
0.0
 11
-24.006631
 21
-18.707213
 31
0.0
  0
LINE
  5
186
100
AcDbEntity
  8
EBENE_1
 62
     7
100
AcDbLine
 10
-24.006631
 20
-18.707213
 30
0.0
 11
-23.921882
 21
-18.114657
 31
0.0
  0
LINE
  5
185
100
AcDbEntity
  8
EBENE_1
 62
     7
100
AcDbLine
 10
-27.477909
 20
-18.453309
 30
0.0
 11
-27.139256
 21
-19.21502
 31
0.0
  0
LINE
  5
184
100
AcDbEntity
  8
EBENE_1
 62
     7
100
AcDbLine
 10
-27.139256
 20
-19.21502
 30
0.0
 11
-26.631277
 21
-19.807921
 31
0.0
  0
LINE
  5
183
100
AcDbEntity
  8
EBENE_1
 62
     7
100
AcDbLine
 10
-26.631277
 20
-19.807921
 30
0.0
 11
-25.953971
 21
-20.061825
 31
0.0
  0
LINE
  5
182
100
AcDbEntity
  8
EBENE_1
 62
     7
100
AcDbLine
 10
-25.953971
 20
-20.061825
 30
0.0
 11
-25.107339
 21
-20.146574
 31
0.0
  0
LINE
  5
181
100
AcDbEntity
  8
EBENE_1
 62
     7
100
AcDbLine
 10
-25.107339
 20
-20.146574
 30
0.0
 11
-24.430033
 21
-19.807921
 31
0.0
  0
LINE
  5
180
100
AcDbEntity
  8
EBENE_1
 62
     7
100
AcDbLine
 10
-24.430033
 20
-19.807921
 30
0.0
 11
-23.837305
 21
-19.299769
 31
0.0
  0
LINE
  5
17F
100
AcDbEntity
  8
EBENE_1
 62
     7
100
AcDbLine
 10
-23.837305
 20
-19.299769
 30
0.0
 11
-23.583229
 21
-18.537714
 31
0.0
  0
LINE
  5
17E
100
AcDbEntity
  8
EBENE_1
 62
     7
100
AcDbLine
 10
-23.583229
 20
-18.537714
 30
0.0
 11
-23.498652
 21
-17.776004
 31
0.0
  0
LINE
  5
17D
100
AcDbEntity
  8
EBENE_1
 62
     7
100
AcDbLine
 10
-23.498652
 20
-17.776004
 30
0.0
 11
-23.837305
 21
-17.098353
 31
0.0
  0
LINE
  5
17C
100
AcDbEntity
  8
EBENE_1
 62
     7
100
AcDbLine
 10
-23.837305
 20
-17.098353
 30
0.0
 11
-24.345284
 21
-16.505797
 31
0.0
  0
LINE
  5
17B
100
AcDbEntity
  8
EBENE_1
 62
     7
100
AcDbLine
 10
-24.345284
 20
-16.505797
 30
0.0
 11
-25.02259
 21
-16.167144
 31
0.0
  0
LINE
  5
17A
100
AcDbEntity
  8
EBENE_1
 62
     7
100
AcDbLine
 10
-25.02259
 20
-16.167144
 30
0.0
 11
-25.869222
 21
-16.167144
 31
0.0
  0
LINE
  5
179
100
AcDbEntity
  8
EBENE_1
 62
     7
100
AcDbLine
 10
-28.578617
 20
-21.416436
 30
0.0
 11
-28.578617
 21
-14.897282
 31
0.0
  0
LINE
  5
178
100
AcDbEntity
  8
EBENE_1
 62
     7
100
AcDbLine
 10
-22.397944
 20
-21.416436
 30
0.0
 11
-22.397944
 21
-14.897282
 31
0.0
  0
LINE
  5
177
100
AcDbEntity
  8
EBENE_1
 62
     7
100
AcDbLine
 10
-29.00202
 20
-0.16502
 30
0.0
 11
-21.974714
 21
-0.16502
 31
0.0
  0
LINE
  5
176
100
AcDbEntity
  8
EBENE_1
 62
     7
100
AcDbLine
 10
-13.761951
 20
-30.645158
 30
0.0
 11
-12.491916
 21
-30.645158
 31
0.0
  0
LINE
  5
175
100
AcDbEntity
  8
EBENE_1
 62
     7
100
AcDbLine
 10
-29.00202
 20
8.386051
 30
0.0
 11
-29.00202
 21
12.873633
 31
0.0
  0
LINE
  5
174
100
AcDbEntity
  8
EBENE_1
 62
     7
100
AcDbLine
 10
-21.974714
 20
8.386051
 30
0.0
 11
-21.974714
 21
12.873633
 31
0.0
  0
LINE
  5
173
100
AcDbEntity
  8
EBENE_1
 62
     7
100
AcDbLine
 10
-34.251312
 20
12.111578
 30
0.0
 11
-39.500604
 21
12.111578
 31
0.0
  0
LINE
  5
172
100
AcDbEntity
  8
EBENE_1
 62
     7
100
AcDbLine
 10
-16.72525
 20
12.111578
 30
0.0
 11
-11.475958
 21
12.111578
 31
0.0
  0
LINE
  5
171
100
AcDbEntity
  8
EBENE_1
 62
     7
100
AcDbLine
 10
-29.00202
 20
12.111578
 30
0.0
 11
-21.974714
 21
12.111578
 31
0.0
  0
POLYLINE
  5
16C
100
AcDbEntity
  8
EBENE_1
 62
     7
100
AcDb2dPolyline
 66
     1
 10
0.0
 20
0.0
 30
0.0
 70
     1
  0
VERTEX
  5
16D
100
AcDbEntity
  8
EBENE_1
 62
     7
100
AcDbVertex
100
AcDb2dVertex
 10
-34.251312
 20
12.958038
 30
0.0
  0
VERTEX
  5
16E
100
AcDbEntity
  8
EBENE_1
 62
     7
100
AcDbVertex
100
AcDb2dVertex
 10
-34.251312
 20
11.264773
 30
0.0
  0
VERTEX
  5
16F
100
AcDbEntity
  8
EBENE_1
 62
     7
100
AcDbVertex
100
AcDb2dVertex
 10
-29.00202
 20
12.111578
 30
0.0
  0
SEQEND
  5
170
100
AcDbEntity
  8
EBENE_1
 62
     7
  0
HATCH
  5
16B
100
AcDbEntity
  8
EBENE_1
 62
     7
100
AcDbHatch
 10
0.0
 20
0.0
 30
0.0
210
0.0
220
0.0
230
1.0
  2
SOLID
 70
     1
 71
     0
 91
        1
 92
        3
 72
     0
 73
     1
 93
        3
 10
-34.25131157769097
 20
12.958037651909722
 10
-34.25131157769097
 20
11.264773220486109
 10
-29.002019585503469
 20
12.11157769097222
 97
        0
 75
     0
 76
     1
 98
        1
 10
0.0
 20
0.0
  0
POLYLINE
  5
166
100
AcDbEntity
  8
EBENE_1
 62
     7
100
AcDb2dPolyline
 66
     1
 10
0.0
 20
0.0
 30
0.0
 70
     1
  0
VERTEX
  5
167
100
AcDbEntity
  8
EBENE_1
 62
     7
100
AcDbVertex
100
AcDb2dVertex
 10
-16.72525
 20
12.958038
 30
0.0
  0
VERTEX
  5
168
100
AcDbEntity
  8
EBENE_1
 62
     7
100
AcDbVertex
100
AcDb2dVertex
 10
-16.72525
 20
11.264773
 30
0.0
  0
VERTEX
  5
169
100
AcDbEntity
  8
EBENE_1
 62
     7
100
AcDbVertex
100
AcDb2dVertex
 10
-21.974714
 20
12.111578
 30
0.0
  0
SEQEND
  5
16A
100
AcDbEntity
  8
EBENE_1
 62
     7
  0
HATCH
  5
165
100
AcDbEntity
  8
EBENE_1
 62
     7
100
AcDbHatch
 10
0.0
 20
0.0
 30
0.0
210
0.0
220
0.0
230
1.0
  2
SOLID
 70
     1
 71
     0
 91
        1
 92
        3
 72
     0
 73
     1
 93
        3
 10
-16.72524956597222
 20
12.958037651909722
 10
-16.72524956597222
 20
11.264773220486109
 10
-21.974713812934027
 20
12.11157769097222
 97
        0
 75
     0
 76
     1
 98
        1
 10
0.0
 20
0.0
  0
LINE
  5
164
100
AcDbEntity
  8
EBENE_1
 62
     7
100
AcDbLine
 10
-27.224006
 20
18.88498
 30
0.0
 11
-23.752555
 21
18.88498
 31
0.0
  0
LINE
  5
163
100
AcDbEntity
  8
EBENE_1
 62
     7
100
AcDbLine
 10
-23.752555
 20
18.88498
 30
0.0
 11
-26.208047
 21
13.635343
 31
0.0
  0
LINE
  5
162
100
AcDbEntity
  8
EBENE_1
 62
     7
100
AcDbLine
 10
-26.208047
 20
13.635343
 30
0.0
 11
-26.208047
 21
13.635343
 31
0.0
  0
LINE
  5
161
100
AcDbEntity
  8
EBENE_1
 62
     7
100
AcDbLine
 10
-16.386597
 20
3.390663
 30
0.0
 11
-0.384645
 21
3.390663
 31
0.0
  0
LINE
  5
160
100
AcDbEntity
  8
EBENE_1
 62
     7
100
AcDbLine
 10
-20.027374
 20
24.811578
 30
0.0
 11
-0.384645
 21
24.811578
 31
0.0
  0
LINE
  5
15F
100
AcDbEntity
  8
EBENE_1
 62
     7
100
AcDbLine
 10
-1.1467
 20
8.640299
 30
0.0
 11
-1.1467
 21
19.562286
 31
0.0
  0
POLYLINE
  5
15A
100
AcDbEntity
  8
EBENE_1
 62
     7
100
AcDb2dPolyline
 66
     1
 10
0.0
 20
0.0
 30
0.0
 70
     1
  0
VERTEX
  5
15B
100
AcDbEntity
  8
EBENE_1
 62
     7
100
AcDbVertex
100
AcDb2dVertex
 10
-1.993332
 20
8.640299
 30
0.0
  0
VERTEX
  5
15C
100
AcDbEntity
  8
EBENE_1
 62
     7
100
AcDbVertex
100
AcDb2dVertex
 10
-0.215318
 20
8.640299
 30
0.0
  0
VERTEX
  5
15D
100
AcDbEntity
  8
EBENE_1
 62
     7
100
AcDbVertex
100
AcDb2dVertex
 10
-1.1467
 20
3.390663
 30
0.0
  0
SEQEND
  5
15E
100
AcDbEntity
  8
EBENE_1
 62
     7
  0
HATCH
  5
159
100
AcDbEntity
  8
EBENE_1
 62
     7
100
AcDbHatch
 10
0.0
 20
0.0
 30
0.0
210
0.0
220
0.0
230
1.0
  2
SOLID
 70
     1
 71
     0
 91
        1
 92
        3
 72
     0
 73
     1
 93
        3
 10
-1.9933322482638887
 20
8.6402994791666661
 10
-0.2153184678819444
 20
8.6402994791666661
 10
-1.1467000325520833
 20
3.3906629774305554
 97
        0
 75
     0
 76
     1
 98
        1
 10
0.0
 20
0.0
  0
POLYLINE
  5
154
100
AcDbEntity
  8
EBENE_1
 62
     7
100
AcDb2dPolyline
 66
     1
 10
0.0
 20
0.0
 30
0.0
 70
     1
  0
VERTEX
  5
155
100
AcDbEntity
  8
EBENE_1
 62
     7
100
AcDbVertex
100
AcDb2dVertex
 10
-1.993332
 20
19.562286
 30
0.0
  0
VERTEX
  5
156
100
AcDbEntity
  8
EBENE_1
 62
     7
100
AcDbVertex
100
AcDb2dVertex
 10
-0.215318
 20
19.562286
 30
0.0
  0
VERTEX
  5
157
100
AcDbEntity
  8
EBENE_1
 62
     7
100
AcDbVertex
100
AcDb2dVertex
 10
-1.1467
 20
24.811578
 30
0.0
  0
SEQEND
  5
158
100
AcDbEntity
  8
EBENE_1
 62
     7
  0
HATCH
  5
153
100
AcDbEntity
  8
EBENE_1
 62
     7
100
AcDbHatch
 10
0.0
 20
0.0
 30
0.0
210
0.0
220
0.0
230
1.0
  2
SOLID
 70
     1
 71
     0
 91
        1
 92
        3
 72
     0
 73
     1
 93
        3
 10
-1.9933322482638887
 20
19.56228569878472
 10
-0.2153184678819444
 20
19.56228569878472
 10
-1.1467000325520833
 20
24.811577690972221
 97
        0
 75
     0
 76
     1
 98
        1
 10
0.0
 20
0.0
  0
LINE
  5
152
100
AcDbEntity
  8
EBENE_1
 62
     7
100
AcDbLine
 10
-6.649896
 20
6.862286
 30
0.0
 11
-6.903971
 21
6.862286
 31
0.0
  0
LINE
  5
151
100
AcDbEntity
  8
EBENE_1
 62
     7
100
AcDbLine
 10
-6.903971
 20
6.862286
 30
0.0
 11
-7.411951
 21
7.116189
 31
0.0
  0
LINE
  5
150
100
AcDbEntity
  8
EBENE_1
 62
     7
100
AcDbLine
 10
-7.411951
 20
7.116189
 30
0.0
 11
-7.666026
 21
7.370093
 31
0.0
  0
LINE
  5
14F
100
AcDbEntity
  8
EBENE_1
 62
     7
100
AcDbLine
 10
-7.666026
 20
7.370093
 30
0.0
 11
-7.835353
 21
7.878244
 31
0.0
  0
LINE
  5
14E
100
AcDbEntity
  8
EBENE_1
 62
     7
100
AcDbLine
 10
-7.835353
 20
7.878244
 30
0.0
 11
-7.835353
 21
8.894203
 31
0.0
  0
LINE
  5
14D
100
AcDbEntity
  8
EBENE_1
 62
     7
100
AcDbLine
 10
-7.835353
 20
8.894203
 30
0.0
 11
-7.666026
 21
9.317605
 31
0.0
  0
LINE
  5
14C
100
AcDbEntity
  8
EBENE_1
 62
     7
100
AcDbLine
 10
-7.666026
 20
9.317605
 30
0.0
 11
-7.411951
 21
9.571509
 31
0.0
  0
LINE
  5
14B
100
AcDbEntity
  8
EBENE_1
 62
     7
100
AcDbLine
 10
-7.411951
 20
9.571509
 30
0.0
 11
-6.903971
 21
9.825412
 31
0.0
  0
LINE
  5
14A
100
AcDbEntity
  8
EBENE_1
 62
     7
100
AcDbLine
 10
-6.903971
 20
9.825412
 30
0.0
 11
-6.395992
 21
9.825412
 31
0.0
  0
LINE
  5
149
100
AcDbEntity
  8
EBENE_1
 62
     7
100
AcDbLine
 10
-6.395992
 20
9.825412
 30
0.0
 11
-5.888013
 21
9.571509
 31
0.0
  0
LINE
  5
148
100
AcDbEntity
  8
EBENE_1
 62
     7
100
AcDbLine
 10
-5.888013
 20
9.571509
 30
0.0
 11
-5.125958
 21
9.063357
 31
0.0
  0
LINE
  5
147
100
AcDbEntity
  8
EBENE_1
 62
     7
100
AcDbLine
 10
-5.125958
 20
9.063357
 30
0.0
 11
-2.670638
 21
6.608038
 31
0.0
  0
LINE
  5
146
100
AcDbEntity
  8
EBENE_1
 62
     7
100
AcDbLine
 10
-2.670638
 20
6.608038
 30
0.0
 11
-2.670638
 21
10.079316
 31
0.0
  0
LINE
  5
145
100
AcDbEntity
  8
EBENE_1
 62
     7
100
AcDbLine
 10
-6.903971
 20
11.603426
 30
0.0
 11
-7.158047
 21
12.111578
 31
0.0
  0
LINE
  5
144
100
AcDbEntity
  8
EBENE_1
 62
     7
100
AcDbLine
 10
-7.158047
 20
12.111578
 30
0.0
 11
-7.835353
 21
12.873633
 31
0.0
  0
LINE
  5
143
100
AcDbEntity
  8
EBENE_1
 62
     7
100
AcDbLine
 10
-7.835353
 20
12.873633
 30
0.0
 11
-2.670638
 21
12.873633
 31
0.0
  0
LINE
  5
142
100
AcDbEntity
  8
EBENE_1
 62
     7
100
AcDbLine
 10
-3.09404
 20
15.836759
 30
0.0
 11
-2.839964
 21
15.582856
 31
0.0
  0
LINE
  5
141
100
AcDbEntity
  8
EBENE_1
 62
     7
100
AcDbLine
 10
-2.839964
 20
15.582856
 30
0.0
 11
-2.670638
 21
15.836759
 31
0.0
  0
LINE
  5
140
100
AcDbEntity
  8
EBENE_1
 62
     7
100
AcDbLine
 10
-2.670638
 20
15.836759
 30
0.0
 11
-2.839964
 21
16.090663
 31
0.0
  0
LINE
  5
13F
100
AcDbEntity
  8
EBENE_1
 62
     7
100
AcDbLine
 10
-7.835353
 20
21.086051
 30
0.0
 11
-7.835353
 21
18.630732
 31
0.0
  0
LINE
  5
13E
100
AcDbEntity
  8
EBENE_1
 62
     7
100
AcDbLine
 10
-7.835353
 20
18.630732
 30
0.0
 11
-5.633937
 21
18.376828
 31
0.0
  0
LINE
  5
13D
100
AcDbEntity
  8
EBENE_1
 62
     7
100
AcDbLine
 10
-5.633937
 20
18.376828
 30
0.0
 11
-5.888013
 21
18.630732
 31
0.0
  0
LINE
  5
13C
100
AcDbEntity
  8
EBENE_1
 62
     7
100
AcDbLine
 10
-5.888013
 20
18.630732
 30
0.0
 11
-6.141916
 21
19.392787
 31
0.0
  0
LINE
  5
13B
100
AcDbEntity
  8
EBENE_1
 62
     7
100
AcDbLine
 10
-6.141916
 20
19.392787
 30
0.0
 11
-6.141916
 21
20.070093
 31
0.0
  0
LINE
  5
13A
100
AcDbEntity
  8
EBENE_1
 62
     7
100
AcDbLine
 10
-6.141916
 20
20.070093
 30
0.0
 11
-5.888013
 21
20.832148
 31
0.0
  0
LINE
  5
139
100
AcDbEntity
  8
EBENE_1
 62
     7
100
AcDbLine
 10
-5.888013
 20
20.832148
 30
0.0
 11
-5.380033
 21
21.340299
 31
0.0
  0
LINE
  5
138
100
AcDbEntity
  8
EBENE_1
 62
     7
100
AcDbLine
 10
-5.380033
 20
21.340299
 30
0.0
 11
-4.617978
 21
21.594203
 31
0.0
  0
LINE
  5
137
100
AcDbEntity
  8
EBENE_1
 62
     7
100
AcDbLine
 10
-4.617978
 20
21.594203
 30
0.0
 11
-4.109999
 21
21.594203
 31
0.0
  0
LINE
  5
136
100
AcDbEntity
  8
EBENE_1
 62
     7
100
AcDbLine
 10
-4.109999
 20
21.594203
 30
0.0
 11
-3.347944
 21
21.340299
 31
0.0
  0
LINE
  5
135
100
AcDbEntity
  8
EBENE_1
 62
     7
100
AcDbLine
 10
-3.347944
 20
21.340299
 30
0.0
 11
-2.839964
 21
20.832148
 31
0.0
  0
LINE
  5
134
100
AcDbEntity
  8
EBENE_1
 62
     7
100
AcDbLine
 10
-2.839964
 20
20.832148
 30
0.0
 11
-2.670638
 21
20.070093
 31
0.0
  0
LINE
  5
133
100
AcDbEntity
  8
EBENE_1
 62
     7
100
AcDbLine
 10
-2.670638
 20
20.070093
 30
0.0
 11
-2.670638
 21
19.392787
 31
0.0
  0
LINE
  5
132
100
AcDbEntity
  8
EBENE_1
 62
     7
100
AcDbLine
 10
-2.670638
 20
19.392787
 30
0.0
 11
-2.839964
 21
18.630732
 31
0.0
  0
LINE
  5
131
100
AcDbEntity
  8
EBENE_1
 62
     7
100
AcDbLine
 10
-2.839964
 20
18.630732
 30
0.0
 11
-3.09404
 21
18.376828
 31
0.0
  0
LINE
  5
130
100
AcDbEntity
  8
EBENE_1
 62
     7
100
AcDbLine
 10
-3.09404
 20
18.376828
 30
0.0
 11
-3.60202
 21
18.122925
 31
0.0
  0
LINE
  5
12F
100
AcDbEntity
  8
EBENE_1
 62
     7
100
AcDbLine
 10
-3.60202
 20
18.122925
 30
0.0
 11
-3.60202
 21
18.122925
 31
0.0
  0
LINE
  5
12E
100
AcDbEntity
  8
EBENE_1
 62
     7
100
AcDbLine
 10
-22.397944
 20
28.113357
 30
0.0
 11
-22.397944
 21
21.594203
 31
0.0
  0
LINE
  5
12D
100
AcDbEntity
  8
EBENE_1
 62
     7
100
AcDbLine
 10
-28.578617
 20
28.113357
 30
0.0
 11
-28.578617
 21
21.594203
 31
0.0
  0
LINE
  5
12C
100
AcDbEntity
  8
EBENE_1
 62
     7
100
AcDbLine
 10
-25.530569
 20
24.811578
 30
0.0
 11
-25.530569
 21
20.832148
 31
0.0
  0
LINE
  5
12B
100
AcDbEntity
  8
EBENE_1
 62
     7
100
AcDbLine
 10
-23.921882
 20
24.811578
 30
0.0
 11
-24.006631
 21
25.488883
 31
0.0
  0
LINE
  5
12A
100
AcDbEntity
  8
EBENE_1
 62
     7
100
AcDbLine
 10
-24.006631
 20
25.488883
 30
0.0
 11
-24.345284
 21
25.996691
 31
0.0
  0
LINE
  5
129
100
AcDbEntity
  8
EBENE_1
 62
     7
100
AcDbLine
 10
-24.345284
 20
25.996691
 30
0.0
 11
-24.853263
 21
26.335343
 31
0.0
  0
LINE
  5
128
100
AcDbEntity
  8
EBENE_1
 62
     7
100
AcDbLine
 10
-24.853263
 20
26.335343
 30
0.0
 11
-25.530569
 21
26.420093
 31
0.0
  0
LINE
  5
127
100
AcDbEntity
  8
EBENE_1
 62
     7
100
AcDbLine
 10
-25.530569
 20
26.420093
 30
0.0
 11
-26.123298
 21
26.335343
 31
0.0
  0
LINE
  5
126
100
AcDbEntity
  8
EBENE_1
 62
     7
100
AcDbLine
 10
-26.123298
 20
26.335343
 30
0.0
 11
-26.631277
 21
25.996691
 31
0.0
  0
LINE
  5
125
100
AcDbEntity
  8
EBENE_1
 62
     7
100
AcDbLine
 10
-26.631277
 20
25.996691
 30
0.0
 11
-26.96993
 21
25.488883
 31
0.0
  0
LINE
  5
124
100
AcDbEntity
  8
EBENE_1
 62
     7
100
AcDbLine
 10
-26.96993
 20
25.488883
 30
0.0
 11
-27.054679
 21
24.811578
 31
0.0
  0
LINE
  5
123
100
AcDbEntity
  8
EBENE_1
 62
     7
100
AcDbLine
 10
-27.054679
 20
24.811578
 30
0.0
 11
-26.96993
 21
24.218677
 31
0.0
  0
LINE
  5
122
100
AcDbEntity
  8
EBENE_1
 62
     7
100
AcDbLine
 10
-26.96993
 20
24.218677
 30
0.0
 11
-26.631277
 21
23.71087
 31
0.0
  0
LINE
  5
121
100
AcDbEntity
  8
EBENE_1
 62
     7
100
AcDbLine
 10
-26.631277
 20
23.71087
 30
0.0
 11
-26.123298
 21
23.372217
 31
0.0
  0
LINE
  5
120
100
AcDbEntity
  8
EBENE_1
 62
     7
100
AcDbLine
 10
-26.123298
 20
23.372217
 30
0.0
 11
-25.530569
 21
23.287467
 31
0.0
  0
LINE
  5
11F
100
AcDbEntity
  8
EBENE_1
 62
     7
100
AcDbLine
 10
-25.530569
 20
23.287467
 30
0.0
 11
-24.853263
 21
23.372217
 31
0.0
  0
LINE
  5
11E
100
AcDbEntity
  8
EBENE_1
 62
     7
100
AcDbLine
 10
-24.853263
 20
23.372217
 30
0.0
 11
-24.345284
 21
23.71087
 31
0.0
  0
LINE
  5
11D
100
AcDbEntity
  8
EBENE_1
 62
     7
100
AcDbLine
 10
-24.345284
 20
23.71087
 30
0.0
 11
-24.006631
 21
24.218677
 31
0.0
  0
LINE
  5
11C
100
AcDbEntity
  8
EBENE_1
 62
     7
100
AcDbLine
 10
-24.006631
 20
24.218677
 30
0.0
 11
-23.921882
 21
24.811578
 31
0.0
  0
LINE
  5
11B
100
AcDbEntity
  8
EBENE_1
 62
     7
100
AcDbLine
 10
-27.477909
 20
24.472925
 30
0.0
 11
-27.139256
 21
23.795619
 31
0.0
  0
LINE
  5
11A
100
AcDbEntity
  8
EBENE_1
 62
     7
100
AcDbLine
 10
-27.139256
 20
23.795619
 30
0.0
 11
-26.631277
 21
23.202718
 31
0.0
  0
LINE
  5
119
100
AcDbEntity
  8
EBENE_1
 62
     7
100
AcDbLine
 10
-26.631277
 20
23.202718
 30
0.0
 11
-25.953971
 21
22.864065
 31
0.0
  0
LINE
  5
118
100
AcDbEntity
  8
EBENE_1
 62
     7
100
AcDbLine
 10
-25.953971
 20
22.864065
 30
0.0
 11
-25.107339
 21
22.864065
 31
0.0
  0
LINE
  5
117
100
AcDbEntity
  8
EBENE_1
 62
     7
100
AcDbLine
 10
-25.107339
 20
22.864065
 30
0.0
 11
-24.430033
 21
23.202718
 31
0.0
  0
LINE
  5
116
100
AcDbEntity
  8
EBENE_1
 62
     7
100
AcDbLine
 10
-24.430033
 20
23.202718
 30
0.0
 11
-23.837305
 21
23.71087
 31
0.0
  0
LINE
  5
115
100
AcDbEntity
  8
EBENE_1
 62
     7
100
AcDbLine
 10
-23.837305
 20
23.71087
 30
0.0
 11
-23.583229
 21
24.388175
 31
0.0
  0
LINE
  5
114
100
AcDbEntity
  8
EBENE_1
 62
     7
100
AcDbLine
 10
-23.583229
 20
24.388175
 30
0.0
 11
-23.498652
 21
25.23498
 31
0.0
  0
LINE
  5
113
100
AcDbEntity
  8
EBENE_1
 62
     7
100
AcDbLine
 10
-23.498652
 20
25.23498
 30
0.0
 11
-23.837305
 21
25.912286
 31
0.0
  0
LINE
  5
112
100
AcDbEntity
  8
EBENE_1
 62
     7
100
AcDbLine
 10
-23.837305
 20
25.912286
 30
0.0
 11
-24.345284
 21
26.504842
 31
0.0
  0
LINE
  5
111
100
AcDbEntity
  8
EBENE_1
 62
     7
100
AcDbLine
 10
-24.345284
 20
26.504842
 30
0.0
 11
-25.02259
 21
26.843495
 31
0.0
  0
LINE
  5
110
100
AcDbEntity
  8
EBENE_1
 62
     7
100
AcDbLine
 10
-25.02259
 20
26.843495
 30
0.0
 11
-25.869222
 21
26.843495
 31
0.0
  0
LINE
  5
10F
100
AcDbEntity
  8
EBENE_1
 62
     7
100
AcDbLine
 10
-22.397944
 20
24.811578
 30
0.0
 11
-22.56727
 21
25.827536
 31
0.0
  0
LINE
  5
10E
100
AcDbEntity
  8
EBENE_1
 62
     7
100
AcDbLine
 10
-22.56727
 20
25.827536
 30
0.0
 11
-22.990672
 21
26.673996
 31
0.0
  0
LINE
  5
10D
100
AcDbEntity
  8
EBENE_1
 62
     7
100
AcDbLine
 10
-22.990672
 20
26.673996
 30
0.0
 11
-23.667978
 21
27.351647
 31
0.0
  0
LINE
  5
10C
100
AcDbEntity
  8
EBENE_1
 62
     7
100
AcDbLine
 10
-23.667978
 20
27.351647
 30
0.0
 11
-24.51461
 21
27.774704
 31
0.0
  0
LINE
  5
10B
100
AcDbEntity
  8
EBENE_1
 62
     7
100
AcDbLine
 10
-24.51461
 20
27.774704
 30
0.0
 11
-25.530569
 21
27.944203
 31
0.0
  0
LINE
  5
10A
100
AcDbEntity
  8
EBENE_1
 62
     7
100
AcDbLine
 10
-25.530569
 20
27.944203
 30
0.0
 11
-26.461951
 21
27.774704
 31
0.0
  0
LINE
  5
109
100
AcDbEntity
  8
EBENE_1
 62
     7
100
AcDbLine
 10
-26.461951
 20
27.774704
 30
0.0
 11
-27.308583
 21
27.351647
 31
0.0
  0
LINE
  5
108
100
AcDbEntity
  8
EBENE_1
 62
     7
100
AcDbLine
 10
-27.308583
 20
27.351647
 30
0.0
 11
-27.985889
 21
26.673996
 31
0.0
  0
LINE
  5
107
100
AcDbEntity
  8
EBENE_1
 62
     7
100
AcDbLine
 10
-27.985889
 20
26.673996
 30
0.0
 11
-28.409291
 21
25.827536
 31
0.0
  0
LINE
  5
106
100
AcDbEntity
  8
EBENE_1
 62
     7
100
AcDbLine
 10
-28.409291
 20
25.827536
 30
0.0
 11
-28.578617
 21
24.811578
 31
0.0
  0
LINE
  5
105
100
AcDbEntity
  8
EBENE_1
 62
     7
100
AcDbLine
 10
-28.578617
 20
24.811578
 30
0.0
 11
-28.409291
 21
23.880024
 31
0.0
  0
LINE
  5
104
100
AcDbEntity
  8
EBENE_1
 62
     7
100
AcDbLine
 10
-28.409291
 20
23.880024
 30
0.0
 11
-27.985889
 21
23.033564
 31
0.0
  0
LINE
  5
103
100
AcDbEntity
  8
EBENE_1
 62
     7
100
AcDbLine
 10
-27.985889
 20
23.033564
 30
0.0
 11
-27.308583
 21
22.356258
 31
0.0
  0
LINE
  5
102
100
AcDbEntity
  8
EBENE_1
 62
     7
100
AcDbLine
 10
-27.308583
 20
22.356258
 30
0.0
 11
-26.461951
 21
21.932856
 31
0.0
  0
LINE
  5
101
100
AcDbEntity
  8
EBENE_1
 62
     7
100
AcDbLine
 10
-26.461951
 20
21.932856
 30
0.0
 11
-25.530569
 21
21.763357
 31
0.0
  0
LINE
  5
100
100
AcDbEntity
  8
EBENE_1
 62
     7
100
AcDbLine
 10
-25.530569
 20
21.763357
 30
0.0
 11
-24.51461
 21
21.932856
 31
0.0
  0
LINE
  5
FF
100
AcDbEntity
  8
EBENE_1
 62
     7
100
AcDbLine
 10
-24.51461
 20
21.932856
 30
0.0
 11
-23.667978
 21
22.356258
 31
0.0
  0
LINE
  5
FE
100
AcDbEntity
  8
EBENE_1
 62
     7
100
AcDbLine
 10
-23.667978
 20
22.356258
 30
0.0
 11
-22.990672
 21
23.033564
 31
0.0
  0
LINE
  5
FD
100
AcDbEntity
  8
EBENE_1
 62
     7
100
AcDbLine
 10
-22.990672
 20
23.033564
 30
0.0
 11
-22.56727
 21
23.880024
 31
0.0
  0
LINE
  5
FC
100
AcDbEntity
  8
EBENE_1
 62
     7
100
AcDbLine
 10
-22.56727
 20
23.880024
 30
0.0
 11
-22.397944
 21
24.811578
 31
0.0
  0
LINE
  5
FB
100
AcDbEntity
  8
EBENE_1
 62
     7
100
AcDbLine
 10
-25.530569
 20
3.390663
 30
0.0
 11
-28.070638
 21
3.390663
 31
0.0
  0
LINE
  5
FA
100
AcDbEntity
  8
EBENE_1
 62
     7
100
AcDbLine
 10
-29.255923
 20
3.390663
 30
0.0
 11
-29.255923
 21
3.390663
 31
0.0
  0
LINE
  5
F9
100
AcDbEntity
  8
EBENE_1
 62
     7
100
AcDbLine
 10
-30.525958
 20
3.390663
 30
0.0
 11
-33.066026
 21
3.390663
 31
0.0
  0
LINE
  5
F8
100
AcDbEntity
  8
EBENE_1
 62
     7
100
AcDbLine
 10
-33.066026
 20
3.390663
 30
0.0
 11
-33.066026
 21
3.390663
 31
0.0
  0
LINE
  5
F7
100
AcDbEntity
  8
EBENE_1
 62
     7
100
AcDbLine
 10
-34.505215
 20
13.889591
 30
0.0
 11
-35.097944
 21
12.788883
 31
0.0
  0
LINE
  5
F6
100
AcDbEntity
  8
EBENE_1
 62
     7
100
AcDbLine
 10
-29.00202
 20
6.862286
 30
0.0
 11
-21.974714
 21
6.862286
 31
0.0
  0
LINE
  5
F5
100
AcDbEntity
  8
EBENE_1
 62
     7
100
AcDbLine
 10
-25.530569
 20
3.390663
 30
0.0
 11
-22.905923
 21
3.390663
 31
0.0
  0
LINE
  5
F4
100
AcDbEntity
  8
EBENE_1
 62
     7
100
AcDbLine
 10
-21.720638
 20
3.390663
 30
0.0
 11
-21.720638
 21
3.390663
 31
0.0
  0
LINE
  5
F3
100
AcDbEntity
  8
EBENE_1
 62
     7
100
AcDbLine
 10
-20.450604
 20
3.390663
 30
0.0
 11
-17.910707
 21
3.390663
 31
0.0
  0
LINE
  5
F2
100
AcDbEntity
  8
EBENE_1
 62
     7
100
AcDbLine
 10
-17.910707
 20
3.390663
 30
0.0
 11
-17.910707
 21
3.390663
 31
0.0
  0
LINE
  5
F1
100
AcDbEntity
  8
EBENE_1
 62
     7
100
AcDbLine
 10
-25.530569
 20
3.390663
 30
0.0
 11
-25.530569
 21
5.930732
 31
0.0
  0
LINE
  5
F0
100
AcDbEntity
  8
EBENE_1
 62
     7
100
AcDbLine
 10
-25.530569
 20
7.116189
 30
0.0
 11
-25.530569
 21
7.116189
 31
0.0
  0
LINE
  5
EF
100
AcDbEntity
  8
EBENE_1
 62
     7
100
AcDbLine
 10
-25.530569
 20
8.386051
 30
0.0
 11
-25.530569
 21
10.92612
 31
0.0
  0
LINE
  5
EE
100
AcDbEntity
  8
EBENE_1
 62
     7
100
AcDbLine
 10
-25.530569
 20
10.92612
 30
0.0
 11
-25.530569
 21
10.92612
 31
0.0
  0
LINE
  5
ED
100
AcDbEntity
  8
EBENE_1
 62
     7
100
AcDbLine
 10
-28.578617
 20
21.594203
 30
0.0
 11
-27.647236
 21
20.916897
 31
0.0
  0
LINE
  5
EC
100
AcDbEntity
  8
EBENE_1
 62
     7
100
AcDbLine
 10
-27.647236
 20
20.916897
 30
0.0
 11
-26.631277
 21
20.493495
 31
0.0
  0
LINE
  5
EB
100
AcDbEntity
  8
EBENE_1
 62
     7
100
AcDbLine
 10
-26.631277
 20
20.493495
 30
0.0
 11
-25.530569
 21
20.323996
 31
0.0
  0
LINE
  5
EA
100
AcDbEntity
  8
EBENE_1
 62
     7
100
AcDbLine
 10
-25.530569
 20
20.323996
 30
0.0
 11
-24.345284
 21
20.493495
 31
0.0
  0
LINE
  5
E9
100
AcDbEntity
  8
EBENE_1
 62
     7
100
AcDbLine
 10
-24.345284
 20
20.493495
 30
0.0
 11
-23.329325
 21
20.916897
 31
0.0
  0
LINE
  5
E8
100
AcDbEntity
  8
EBENE_1
 62
     7
100
AcDbLine
 10
-23.329325
 20
20.916897
 30
0.0
 11
-22.397944
 21
21.594203
 31
0.0
  0
LINE
  5
E7
100
AcDbEntity
  8
EBENE_1
 62
     7
100
AcDbLine
 10
-25.530569
 20
24.811578
 30
0.0
 11
-21.466562
 21
24.811578
 31
0.0
  0
LINE
  5
E6
100
AcDbEntity
  8
EBENE_1
 62
     7
100
AcDbLine
 10
-22.397944
 20
28.113357
 30
0.0
 11
-23.329325
 21
28.790663
 31
0.0
  0
LINE
  5
E5
100
AcDbEntity
  8
EBENE_1
 62
     7
100
AcDbLine
 10
-23.329325
 20
28.790663
 30
0.0
 11
-24.345284
 21
29.214065
 31
0.0
  0
LINE
  5
E4
100
AcDbEntity
  8
EBENE_1
 62
     7
100
AcDbLine
 10
-24.345284
 20
29.214065
 30
0.0
 11
-25.530569
 21
29.383564
 31
0.0
  0
LINE
  5
E3
100
AcDbEntity
  8
EBENE_1
 62
     7
100
AcDbLine
 10
-25.530569
 20
29.383564
 30
0.0
 11
-26.631277
 21
29.214065
 31
0.0
  0
LINE
  5
E2
100
AcDbEntity
  8
EBENE_1
 62
     7
100
AcDbLine
 10
-26.631277
 20
29.214065
 30
0.0
 11
-27.647236
 21
28.790663
 31
0.0
  0
LINE
  5
E1
100
AcDbEntity
  8
EBENE_1
 62
     7
100
AcDbLine
 10
-27.647236
 20
28.790663
 30
0.0
 11
-28.578617
 21
28.113357
 31
0.0
  0
LINE
  5
E0
100
AcDbEntity
  8
EBENE_1
 62
     7
100
AcDbLine
 10
-25.530569
 20
24.811578
 30
0.0
 11
-29.509999
 21
24.811578
 31
0.0
  0
LINE
  5
DF
100
AcDbEntity
  8
EBENE_1
 62
     7
100
AcDbLine
 10
-25.530569
 20
24.811578
 30
0.0
 11
-25.530569
 21
28.875412
 31
0.0
  0
LINE
  5
DE
100
AcDbEntity
  8
EBENE_1
 62
     7
100
AcDbLine
 10
-13.761951
 20
45.385516
 30
0.0
 11
-13.761951
 21
29.383564
 31
0.0
  0
LINE
  5
DD
100
AcDbEntity
  8
EBENE_1
 62
     7
100
AcDbLine
 10
-13.761951
 20
29.383564
 30
0.0
 11
-12.491916
 21
29.383564
 31
0.0
  0
LINE
  5
DC
100
AcDbEntity
  8
EBENE_1
 62
     7
100
AcDbLine
 10
-13.761951
 20
45.385516
 30
0.0
 11
-12.491916
 21
45.385516
 31
0.0
  0
LINE
  5
DB
100
AcDbEntity
  8
EBENE_1
 62
     7
100
AcDbLine
 10
53.632558
 20
-5.66856
 30
0.0
 11
53.632558
 21
13.889591
 31
0.0
  0
LINE
  5
DA
100
AcDbEntity
  8
EBENE_1
 62
     7
100
AcDbLine
 10
50.585026
 20
-5.66856
 30
0.0
 11
50.585026
 21
13.889591
 31
0.0
  0
LINE
  5
D9
100
AcDbEntity
  8
EBENE_1
 62
     7
100
AcDbLine
 10
53.886806
 20
-5.66856
 30
0.0
 11
53.886806
 21
21.340299
 31
0.0
  0
LINE
  5
D8
100
AcDbEntity
  8
EBENE_1
 62
     7
100
AcDbLine
 10
50.330778
 20
-5.66856
 30
0.0
 11
50.330778
 21
21.340299
 31
0.0
  0
LINE
  5
D7
100
AcDbEntity
  8
EBENE_1
 62
     7
100
AcDbLine
 10
46.605252
 20
-44.61502
 30
0.0
 11
34.752056
 21
-44.61502
 31
0.0
  0
LINE
  5
D6
100
AcDbEntity
  8
EBENE_1
 62
     7
100
AcDbLine
 10
46.605252
 20
37.342079
 30
0.0
 11
34.752056
 21
37.342079
 31
0.0
  0
LINE
  5
D5
100
AcDbEntity
  8
EBENE_1
 62
     7
100
AcDbLine
 10
35.514111
 20
-39.365728
 30
0.0
 11
35.514111
 21
32.092787
 31
0.0
  0
POLYLINE
  5
D0
100
AcDbEntity
  8
EBENE_1
 62
     7
100
AcDb2dPolyline
 66
     1
 10
0.0
 20
0.0
 30
0.0
 70
     1
  0
VERTEX
  5
D1
100
AcDbEntity
  8
EBENE_1
 62
     7
100
AcDbVertex
100
AcDb2dVertex
 10
34.667307
 20
-39.365728
 30
0.0
  0
VERTEX
  5
D2
100
AcDbEntity
  8
EBENE_1
 62
     7
100
AcDbVertex
100
AcDb2dVertex
 10
36.360916
 20
-39.365728
 30
0.0
  0
VERTEX
  5
D3
100
AcDbEntity
  8
EBENE_1
 62
     7
100
AcDbVertex
100
AcDb2dVertex
 10
35.514111
 20
-44.61502
 30
0.0
  0
SEQEND
  5
D4
100
AcDbEntity
  8
EBENE_1
 62
     7
  0
HATCH
  5
CF
100
AcDbEntity
  8
EBENE_1
 62
     7
100
AcDbHatch
 10
0.0
 20
0.0
 30
0.0
210
0.0
220
0.0
230
1.0
  2
SOLID
 70
     1
 71
     0
 91
        1
 92
        3
 72
     0
 73
     1
 93
        3
 10
34.667306857638884
 20
-39.365728081597219
 10
36.36091579861111
 20
-39.365728081597219
 10
35.514111328124997
 20
-44.61502007378472
 97
        0
 75
     0
 76
     1
 98
        1
 10
0.0
 20
0.0
  0
POLYLINE
  5
CA
100
AcDbEntity
  8
EBENE_1
 62
     7
100
AcDb2dPolyline
 66
     1
 10
0.0
 20
0.0
 30
0.0
 70
     1
  0
VERTEX
  5
CB
100
AcDbEntity
  8
EBENE_1
 62
     7
100
AcDbVertex
100
AcDb2dVertex
 10
34.667307
 20
32.092787
 30
0.0
  0
VERTEX
  5
CC
100
AcDbEntity
  8
EBENE_1
 62
     7
100
AcDbVertex
100
AcDb2dVertex
 10
36.360916
 20
32.092787
 30
0.0
  0
VERTEX
  5
CD
100
AcDbEntity
  8
EBENE_1
 62
     7
100
AcDbVertex
100
AcDb2dVertex
 10
35.514111
 20
37.342079
 30
0.0
  0
SEQEND
  5
CE
100
AcDbEntity
  8
EBENE_1
 62
     7
  0
HATCH
  5
C9
100
AcDbEntity
  8
EBENE_1
 62
     7
100
AcDbHatch
 10
0.0
 20
0.0
 30
0.0
210
0.0
220
0.0
230
1.0
  2
SOLID
 70
     1
 71
     0
 91
        1
 92
        3
 72
     0
 73
     1
 93
        3
 10
34.667306857638884
 20
32.09278700086805
 10
36.36091579861111
 20
32.09278700086805
 10
35.514111328124997
 20
37.342078993055551
 97
        0
 75
     0
 76
     1
 98
        1
 10
0.0
 20
0.0
  0
LINE
  5
C8
100
AcDbEntity
  8
EBENE_1
 62
     7
100
AcDbLine
 10
28.740365
 20
-6.684519
 30
0.0
 11
28.994613
 21
-7.361825
 31
0.0
  0
LINE
  5
C7
100
AcDbEntity
  8
EBENE_1
 62
     7
100
AcDbLine
 10
28.994613
 20
-7.361825
 30
0.0
 11
29.50242
 21
-7.615728
 31
0.0
  0
LINE
  5
C6
100
AcDbEntity
  8
EBENE_1
 62
     7
100
AcDbLine
 10
29.50242
 20
-7.615728
 30
0.0
 11
30.010916
 21
-7.615728
 31
0.0
  0
LINE
  5
C5
100
AcDbEntity
  8
EBENE_1
 62
     7
100
AcDbLine
 10
30.010916
 20
-7.615728
 30
0.0
 11
30.518723
 21
-7.361825
 31
0.0
  0
LINE
  5
C4
100
AcDbEntity
  8
EBENE_1
 62
     7
100
AcDbLine
 10
30.518723
 20
-7.361825
 30
0.0
 11
30.772971
 21
-6.854017
 31
0.0
  0
LINE
  5
C3
100
AcDbEntity
  8
EBENE_1
 62
     7
100
AcDbLine
 10
30.772971
 20
-6.854017
 30
0.0
 11
31.02653
 21
-5.922464
 31
0.0
  0
LINE
  5
C2
100
AcDbEntity
  8
EBENE_1
 62
     7
100
AcDbLine
 10
31.02653
 20
-5.922464
 30
0.0
 11
31.280778
 21
-5.160409
 31
0.0
  0
LINE
  5
C1
100
AcDbEntity
  8
EBENE_1
 62
     7
100
AcDbLine
 10
31.280778
 20
-5.160409
 30
0.0
 11
31.788585
 21
-4.652601
 31
0.0
  0
LINE
  5
C0
100
AcDbEntity
  8
EBENE_1
 62
     7
100
AcDbLine
 10
31.788585
 20
-4.652601
 30
0.0
 11
32.296392
 21
-4.398353
 31
0.0
  0
LINE
  5
BF
100
AcDbEntity
  8
EBENE_1
 62
     7
100
AcDbLine
 10
32.296392
 20
-4.398353
 30
0.0
 11
32.973698
 21
-4.398353
 31
0.0
  0
LINE
  5
BE
100
AcDbEntity
  8
EBENE_1
 62
     7
100
AcDbLine
 10
32.973698
 20
-4.398353
 30
0.0
 11
33.482194
 21
-4.652601
 31
0.0
  0
LINE
  5
BD
100
AcDbEntity
  8
EBENE_1
 62
     7
100
AcDbLine
 10
33.482194
 20
-4.652601
 30
0.0
 11
33.735753
 21
-4.906505
 31
0.0
  0
LINE
  5
BC
100
AcDbEntity
  8
EBENE_1
 62
     7
100
AcDbLine
 10
33.735753
 20
-4.906505
 30
0.0
 11
33.990001
 21
-5.66856
 31
0.0
  0
LINE
  5
BB
100
AcDbEntity
  8
EBENE_1
 62
     7
100
AcDbLine
 10
33.990001
 20
-5.66856
 30
0.0
 11
33.990001
 21
-6.684519
 31
0.0
  0
LINE
  5
BA
100
AcDbEntity
  8
EBENE_1
 62
     7
100
AcDbLine
 10
33.990001
 20
-6.684519
 30
0.0
 11
33.735753
 21
-7.361825
 31
0.0
  0
LINE
  5
B9
100
AcDbEntity
  8
EBENE_1
 62
     7
100
AcDbLine
 10
33.735753
 20
-7.361825
 30
0.0
 11
33.482194
 21
-7.615728
 31
0.0
  0
LINE
  5
B8
100
AcDbEntity
  8
EBENE_1
 62
     7
100
AcDbLine
 10
33.482194
 20
-7.615728
 30
0.0
 11
32.973698
 21
-7.869976
 31
0.0
  0
LINE
  5
B7
100
AcDbEntity
  8
EBENE_1
 62
     7
100
AcDbLine
 10
32.973698
 20
-7.869976
 30
0.0
 11
32.296392
 21
-7.869976
 31
0.0
  0
LINE
  5
B6
100
AcDbEntity
  8
EBENE_1
 62
     7
100
AcDbLine
 10
32.296392
 20
-7.869976
 30
0.0
 11
31.788585
 21
-7.615728
 31
0.0
  0
LINE
  5
B5
100
AcDbEntity
  8
EBENE_1
 62
     7
100
AcDbLine
 10
31.788585
 20
-7.615728
 30
0.0
 11
31.280778
 21
-7.107921
 31
0.0
  0
LINE
  5
B4
100
AcDbEntity
  8
EBENE_1
 62
     7
100
AcDbLine
 10
31.280778
 20
-7.107921
 30
0.0
 11
31.02653
 21
-6.430615
 31
0.0
  0
LINE
  5
B3
100
AcDbEntity
  8
EBENE_1
 62
     7
100
AcDbLine
 10
31.02653
 20
-6.430615
 30
0.0
 11
30.772971
 21
-5.414657
 31
0.0
  0
LINE
  5
B2
100
AcDbEntity
  8
EBENE_1
 62
     7
100
AcDbLine
 10
30.772971
 20
-5.414657
 30
0.0
 11
30.518723
 21
-4.906505
 31
0.0
  0
LINE
  5
B1
100
AcDbEntity
  8
EBENE_1
 62
     7
100
AcDbLine
 10
30.518723
 20
-4.906505
 30
0.0
 11
30.010916
 21
-4.652601
 31
0.0
  0
LINE
  5
B0
100
AcDbEntity
  8
EBENE_1
 62
     7
100
AcDbLine
 10
30.010916
 20
-4.652601
 30
0.0
 11
29.50242
 21
-4.652601
 31
0.0
  0
LINE
  5
AF
100
AcDbEntity
  8
EBENE_1
 62
     7
100
AcDbLine
 10
29.50242
 20
-4.652601
 30
0.0
 11
28.994613
 21
-4.906505
 31
0.0
  0
LINE
  5
AE
100
AcDbEntity
  8
EBENE_1
 62
     7
100
AcDbLine
 10
28.994613
 20
-4.906505
 30
0.0
 11
28.740365
 21
-5.66856
 31
0.0
  0
LINE
  5
AD
100
AcDbEntity
  8
EBENE_1
 62
     7
100
AcDbLine
 10
28.740365
 20
-5.66856
 30
0.0
 11
28.740365
 21
-6.684519
 31
0.0
  0
LINE
  5
AC
100
AcDbEntity
  8
EBENE_1
 62
     7
100
AcDbLine
 10
30.010916
 20
-2.620684
 30
0.0
 11
29.756668
 21
-2.620684
 31
0.0
  0
LINE
  5
AB
100
AcDbEntity
  8
EBENE_1
 62
     7
100
AcDbLine
 10
29.756668
 20
-2.620684
 30
0.0
 11
29.248861
 21
-2.366436
 31
0.0
  0
LINE
  5
AA
100
AcDbEntity
  8
EBENE_1
 62
     7
100
AcDbLine
 10
29.248861
 20
-2.366436
 30
0.0
 11
28.994613
 21
-2.112533
 31
0.0
  0
LINE
  5
A9
100
AcDbEntity
  8
EBENE_1
 62
     7
100
AcDbLine
 10
28.994613
 20
-2.112533
 30
0.0
 11
28.740365
 21
-1.604381
 31
0.0
  0
LINE
  5
A8
100
AcDbEntity
  8
EBENE_1
 62
     7
100
AcDbLine
 10
28.740365
 20
-1.604381
 30
0.0
 11
28.740365
 21
-0.673172
 31
0.0
  0
LINE
  5
A7
100
AcDbEntity
  8
EBENE_1
 62
     7
100
AcDbLine
 10
28.740365
 20
-0.673172
 30
0.0
 11
28.994613
 21
-0.16502
 31
0.0
  0
LINE
  5
A6
100
AcDbEntity
  8
EBENE_1
 62
     7
100
AcDbLine
 10
28.994613
 20
-0.16502
 30
0.0
 11
29.248861
 21
0.088883
 31
0.0
  0
LINE
  5
A5
100
AcDbEntity
  8
EBENE_1
 62
     7
100
AcDbLine
 10
29.248861
 20
0.088883
 30
0.0
 11
29.756668
 21
0.342787
 31
0.0
  0
LINE
  5
A4
100
AcDbEntity
  8
EBENE_1
 62
     7
100
AcDbLine
 10
29.756668
 20
0.342787
 30
0.0
 11
30.264475
 21
0.342787
 31
0.0
  0
LINE
  5
A3
100
AcDbEntity
  8
EBENE_1
 62
     7
100
AcDbLine
 10
30.264475
 20
0.342787
 30
0.0
 11
30.772971
 21
0.088883
 31
0.0
  0
LINE
  5
A2
100
AcDbEntity
  8
EBENE_1
 62
     7
100
AcDbLine
 10
30.772971
 20
0.088883
 30
0.0
 11
31.535026
 21
-0.419268
 31
0.0
  0
LINE
  5
A1
100
AcDbEntity
  8
EBENE_1
 62
     7
100
AcDbLine
 10
31.535026
 20
-0.419268
 30
0.0
 11
33.990001
 21
-2.874588
 31
0.0
  0
LINE
  5
A0
100
AcDbEntity
  8
EBENE_1
 62
     7
100
AcDbLine
 10
33.990001
 20
-2.874588
 30
0.0
 11
33.990001
 21
0.596691
 31
0.0
  0
LINE
  5
9F
100
AcDbEntity
  8
EBENE_1
 62
     7
100
AcDbLine
 10
52.108447
 20
-44.61502
 30
0.0
 11
56.088222
 21
-44.61502
 31
0.0
  0
LINE
  5
9E
100
AcDbEntity
  8
EBENE_1
 62
     7
100
AcDbLine
 10
52.108447
 20
-44.61502
 30
0.0
 11
48.129362
 21
-44.61502
 31
0.0
  0
LINE
  5
9D
100
AcDbEntity
  8
EBENE_1
 62
     7
100
AcDbLine
 10
52.108447
 20
-44.61502
 30
0.0
 11
52.108447
 21
-40.635935
 31
0.0
  0
LINE
  5
9C
100
AcDbEntity
  8
EBENE_1
 62
     7
100
AcDbLine
 10
53.886806
 20
-5.66856
 30
0.0
 11
50.330778
 21
-5.66856
 31
0.0
  0
LINE
  5
9B
100
AcDbEntity
  8
EBENE_1
 62
     7
100
AcDbLine
 10
43.896029
 20
3.390663
 30
0.0
 11
45.843197
 21
3.390663
 31
0.0
  0
LINE
  5
9A
100
AcDbEntity
  8
EBENE_1
 62
     7
100
AcDbLine
 10
47.028998
 20
3.390663
 30
0.0
 11
47.028998
 21
3.390663
 31
0.0
  0
LINE
  5
99
100
AcDbEntity
  8
EBENE_1
 62
     7
100
AcDbLine
 10
48.298861
 20
3.390663
 30
0.0
 11
50.838585
 21
3.390663
 31
0.0
  0
LINE
  5
98
100
AcDbEntity
  8
EBENE_1
 62
     7
100
AcDbLine
 10
52.023698
 20
3.390663
 30
0.0
 11
52.023698
 21
3.390663
 31
0.0
  0
LINE
  5
97
100
AcDbEntity
  8
EBENE_1
 62
     7
100
AcDbLine
 10
53.294249
 20
3.390663
 30
0.0
 11
55.833974
 21
3.390663
 31
0.0
  0
LINE
  5
96
100
AcDbEntity
  8
EBENE_1
 62
     7
100
AcDbLine
 10
57.019086
 20
3.390663
 30
0.0
 11
57.019086
 21
3.390663
 31
0.0
  0
LINE
  5
95
100
AcDbEntity
  8
EBENE_1
 62
     7
100
AcDbLine
 10
58.289638
 20
3.390663
 30
0.0
 11
60.236806
 21
3.390663
 31
0.0
  0
LINE
  5
94
100
AcDbEntity
  8
EBENE_1
 62
     7
100
AcDbLine
 10
60.236806
 20
3.390663
 30
0.0
 11
60.236806
 21
3.390663
 31
0.0
  0
LINE
  5
93
100
AcDbEntity
  8
EBENE_1
 62
     7
100
AcDbLine
 10
53.886806
 20
21.340299
 30
0.0
 11
50.330778
 21
21.340299
 31
0.0
  0
LINE
  5
92
100
AcDbEntity
  8
EBENE_1
 62
     7
100
AcDbLine
 10
53.632558
 20
13.889591
 30
0.0
 11
50.585026
 21
13.889591
 31
0.0
  0
LINE
  5
91
100
AcDbEntity
  8
EBENE_1
 62
     7
100
AcDbLine
 10
52.108447
 20
37.342079
 30
0.0
 11
52.108447
 21
33.362649
 31
0.0
  0
LINE
  5
90
100
AcDbEntity
  8
EBENE_1
 62
     7
100
AcDbLine
 10
54.056304
 20
37.342079
 30
0.0
 11
53.971555
 21
38.104134
 31
0.0
  0
LINE
  5
8F
100
AcDbEntity
  8
EBENE_1
 62
     7
100
AcDbLine
 10
53.971555
 20
38.104134
 30
0.0
 11
53.547808
 21
38.78144
 31
0.0
  0
LINE
  5
8E
100
AcDbEntity
  8
EBENE_1
 62
     7
100
AcDbLine
 10
53.547808
 20
38.78144
 30
0.0
 11
52.870502
 21
39.204842
 31
0.0
  0
LINE
  5
8D
100
AcDbEntity
  8
EBENE_1
 62
     7
100
AcDbLine
 10
52.870502
 20
39.204842
 30
0.0
 11
52.108447
 21
39.374169
 31
0.0
  0
LINE
  5
8C
100
AcDbEntity
  8
EBENE_1
 62
     7
100
AcDbLine
 10
52.108447
 20
39.374169
 30
0.0
 11
51.346392
 21
39.204842
 31
0.0
  0
LINE
  5
8B
100
AcDbEntity
  8
EBENE_1
 62
     7
100
AcDbLine
 10
51.346392
 20
39.204842
 30
0.0
 11
50.669086
 21
38.78144
 31
0.0
  0
LINE
  5
8A
100
AcDbEntity
  8
EBENE_1
 62
     7
100
AcDbLine
 10
50.669086
 20
38.78144
 30
0.0
 11
50.246029
 21
38.104134
 31
0.0
  0
LINE
  5
89
100
AcDbEntity
  8
EBENE_1
 62
     7
100
AcDbLine
 10
50.246029
 20
38.104134
 30
0.0
 11
50.07653
 21
37.342079
 31
0.0
  0
LINE
  5
88
100
AcDbEntity
  8
EBENE_1
 62
     7
100
AcDbLine
 10
50.07653
 20
37.342079
 30
0.0
 11
50.246029
 21
36.580024
 31
0.0
  0
LINE
  5
87
100
AcDbEntity
  8
EBENE_1
 62
     7
100
AcDbLine
 10
50.246029
 20
36.580024
 30
0.0
 11
50.669086
 21
35.902718
 31
0.0
  0
LINE
  5
86
100
AcDbEntity
  8
EBENE_1
 62
     7
100
AcDbLine
 10
50.669086
 20
35.902718
 30
0.0
 11
51.346392
 21
35.479316
 31
0.0
  0
LINE
  5
85
100
AcDbEntity
  8
EBENE_1
 62
     7
100
AcDbLine
 10
51.346392
 20
35.479316
 30
0.0
 11
52.108447
 21
35.310162
 31
0.0
  0
LINE
  5
84
100
AcDbEntity
  8
EBENE_1
 62
     7
100
AcDbLine
 10
52.108447
 20
35.310162
 30
0.0
 11
52.870502
 21
35.479316
 31
0.0
  0
LINE
  5
83
100
AcDbEntity
  8
EBENE_1
 62
     7
100
AcDbLine
 10
52.870502
 20
35.479316
 30
0.0
 11
53.547808
 21
35.902718
 31
0.0
  0
LINE
  5
82
100
AcDbEntity
  8
EBENE_1
 62
     7
100
AcDbLine
 10
53.547808
 20
35.902718
 30
0.0
 11
53.971555
 21
36.580024
 31
0.0
  0
LINE
  5
81
100
AcDbEntity
  8
EBENE_1
 62
     7
100
AcDbLine
 10
53.971555
 20
36.580024
 30
0.0
 11
54.056304
 21
37.342079
 31
0.0
  0
LINE
  5
80
100
AcDbEntity
  8
EBENE_1
 62
     7
100
AcDbLine
 10
55.326166
 20
37.342079
 30
0.0
 11
55.156668
 21
38.35821
 31
0.0
  0
LINE
  5
7F
100
AcDbEntity
  8
EBENE_1
 62
     7
100
AcDbLine
 10
55.156668
 20
38.35821
 30
0.0
 11
54.73361
 21
39.289419
 31
0.0
  0
LINE
  5
7E
100
AcDbEntity
  8
EBENE_1
 62
     7
100
AcDbLine
 10
54.73361
 20
39.289419
 30
0.0
 11
53.971555
 21
39.966725
 31
0.0
  0
LINE
  5
7D
100
AcDbEntity
  8
EBENE_1
 62
     7
100
AcDbLine
 10
53.971555
 20
39.966725
 30
0.0
 11
53.12475
 21
40.474877
 31
0.0
  0
LINE
  5
7C
100
AcDbEntity
  8
EBENE_1
 62
     7
100
AcDbLine
 10
53.12475
 20
40.474877
 30
0.0
 11
52.108447
 21
40.559454
 31
0.0
  0
LINE
  5
7B
100
AcDbEntity
  8
EBENE_1
 62
     7
100
AcDbLine
 10
52.108447
 20
40.559454
 30
0.0
 11
51.092833
 21
40.474877
 31
0.0
  0
LINE
  5
7A
100
AcDbEntity
  8
EBENE_1
 62
     7
100
AcDbLine
 10
51.092833
 20
40.474877
 30
0.0
 11
50.161279
 21
39.966725
 31
0.0
  0
LINE
  5
79
100
AcDbEntity
  8
EBENE_1
 62
     7
100
AcDbLine
 10
50.161279
 20
39.966725
 30
0.0
 11
49.483974
 21
39.289419
 31
0.0
  0
LINE
  5
78
100
AcDbEntity
  8
EBENE_1
 62
     7
100
AcDbLine
 10
49.483974
 20
39.289419
 30
0.0
 11
48.976166
 21
38.35821
 31
0.0
  0
LINE
  5
77
100
AcDbEntity
  8
EBENE_1
 62
     7
100
AcDbLine
 10
48.976166
 20
38.35821
 30
0.0
 11
48.806668
 21
37.342079
 31
0.0
  0
LINE
  5
76
100
AcDbEntity
  8
EBENE_1
 62
     7
100
AcDbLine
 10
48.806668
 20
37.342079
 30
0.0
 11
48.976166
 21
36.32612
 31
0.0
  0
LINE
  5
75
100
AcDbEntity
  8
EBENE_1
 62
     7
100
AcDbLine
 10
48.976166
 20
36.32612
 30
0.0
 11
49.483974
 21
35.479316
 31
0.0
  0
LINE
  5
74
100
AcDbEntity
  8
EBENE_1
 62
     7
100
AcDbLine
 10
49.483974
 20
35.479316
 30
0.0
 11
50.161279
 21
34.717605
 31
0.0
  0
LINE
  5
73
100
AcDbEntity
  8
EBENE_1
 62
     7
100
AcDbLine
 10
50.161279
 20
34.717605
 30
0.0
 11
51.092833
 21
34.294203
 31
0.0
  0
LINE
  5
72
100
AcDbEntity
  8
EBENE_1
 62
     7
100
AcDbLine
 10
51.092833
 20
34.294203
 30
0.0
 11
52.108447
 21
34.124704
 31
0.0
  0
LINE
  5
71
100
AcDbEntity
  8
EBENE_1
 62
     7
100
AcDbLine
 10
52.108447
 20
34.124704
 30
0.0
 11
53.12475
 21
34.294203
 31
0.0
  0
LINE
  5
70
100
AcDbEntity
  8
EBENE_1
 62
     7
100
AcDbLine
 10
53.12475
 20
34.294203
 30
0.0
 11
53.971555
 21
34.717605
 31
0.0
  0
LINE
  5
6F
100
AcDbEntity
  8
EBENE_1
 62
     7
100
AcDbLine
 10
53.971555
 20
34.717605
 30
0.0
 11
54.73361
 21
35.479316
 31
0.0
  0
LINE
  5
6E
100
AcDbEntity
  8
EBENE_1
 62
     7
100
AcDbLine
 10
54.73361
 20
35.479316
 30
0.0
 11
55.156668
 21
36.32612
 31
0.0
  0
LINE
  5
6D
100
AcDbEntity
  8
EBENE_1
 62
     7
100
AcDbLine
 10
55.156668
 20
36.32612
 30
0.0
 11
55.326166
 21
37.342079
 31
0.0
  0
LINE
  5
6C
100
AcDbEntity
  8
EBENE_1
 62
     7
100
AcDbLine
 10
52.108447
 20
37.342079
 30
0.0
 11
56.088222
 21
37.342079
 31
0.0
  0
LINE
  5
6B
100
AcDbEntity
  8
EBENE_1
 62
     7
100
AcDbLine
 10
52.108447
 20
37.342079
 30
0.0
 11
48.129362
 21
37.342079
 31
0.0
  0
LINE
  5
6A
100
AcDbEntity
  8
EBENE_1
 62
     7
100
AcDbLine
 10
52.108447
 20
37.342079
 30
0.0
 11
52.108447
 21
41.321509
 31
0.0
  0
LINE
  5
69
100
AcDbEntity
  8
EBENE_1
 62
     7
100
AcDbLine
 10
-26.123298
 20
68.330196
 30
0.0
 11
-26.292624
 21
69.430732
 31
0.0
  0
LINE
  5
68
100
AcDbEntity
  8
EBENE_1
 62
     7
100
AcDbLine
 10
-26.292624
 20
69.430732
 30
0.0
 11
-26.716026
 21
70.362113
 31
0.0
  0
LINE
  5
67
100
AcDbEntity
  8
EBENE_1
 62
     7
100
AcDbLine
 10
-26.716026
 20
70.362113
 30
0.0
 11
-27.477909
 21
71.124169
 31
0.0
  0
LINE
  5
66
100
AcDbEntity
  8
EBENE_1
 62
     7
100
AcDbLine
 10
-27.477909
 20
71.124169
 30
0.0
 11
-28.409291
 21
71.547399
 31
0.0
  0
LINE
  5
65
100
AcDbEntity
  8
EBENE_1
 62
     7
100
AcDbLine
 10
-28.409291
 20
71.547399
 30
0.0
 11
-29.509999
 21
71.716725
 31
0.0
  0
LINE
  5
64
100
AcDbEntity
  8
EBENE_1
 62
     7
100
AcDbLine
 10
-29.509999
 20
71.716725
 30
0.0
 11
-30.525958
 21
71.547399
 31
0.0
  0
LINE
  5
63
100
AcDbEntity
  8
EBENE_1
 62
     7
100
AcDbLine
 10
-30.525958
 20
71.547399
 30
0.0
 11
-31.457339
 21
71.124169
 31
0.0
  0
LINE
  5
62
100
AcDbEntity
  8
EBENE_1
 62
     7
100
AcDbLine
 10
-31.457339
 20
71.124169
 30
0.0
 11
-32.219222
 21
70.362113
 31
0.0
  0
LINE
  5
61
100
AcDbEntity
  8
EBENE_1
 62
     7
100
AcDbLine
 10
-32.219222
 20
70.362113
 30
0.0
 11
-32.727374
 21
69.430732
 31
0.0
  0
LINE
  5
60
100
AcDbEntity
  8
EBENE_1
 62
     7
100
AcDbLine
 10
-32.727374
 20
69.430732
 30
0.0
 11
-32.8967
 21
68.330196
 31
0.0
  0
LINE
  5
5F
100
AcDbEntity
  8
EBENE_1
 62
     7
100
AcDbLine
 10
-32.8967
 20
68.330196
 30
0.0
 11
-32.727374
 21
67.314065
 31
0.0
  0
LINE
  5
5E
100
AcDbEntity
  8
EBENE_1
 62
     7
100
AcDbLine
 10
-32.727374
 20
67.314065
 30
0.0
 11
-32.219222
 21
66.382856
 31
0.0
  0
LINE
  5
5D
100
AcDbEntity
  8
EBENE_1
 62
     7
100
AcDbLine
 10
-32.219222
 20
66.382856
 30
0.0
 11
-31.457339
 21
65.620801
 31
0.0
  0
LINE
  5
5C
100
AcDbEntity
  8
EBENE_1
 62
     7
100
AcDbLine
 10
-31.457339
 20
65.620801
 30
0.0
 11
-30.525958
 21
65.112821
 31
0.0
  0
LINE
  5
5B
100
AcDbEntity
  8
EBENE_1
 62
     7
100
AcDbLine
 10
-30.525958
 20
65.112821
 30
0.0
 11
-29.509999
 21
64.943495
 31
0.0
  0
LINE
  5
5A
100
AcDbEntity
  8
EBENE_1
 62
     7
100
AcDbLine
 10
-29.509999
 20
64.943495
 30
0.0
 11
-28.409291
 21
65.112821
 31
0.0
  0
LINE
  5
59
100
AcDbEntity
  8
EBENE_1
 62
     7
100
AcDbLine
 10
-28.409291
 20
65.112821
 30
0.0
 11
-27.477909
 21
65.620801
 31
0.0
  0
LINE
  5
58
100
AcDbEntity
  8
EBENE_1
 62
     7
100
AcDbLine
 10
-27.477909
 20
65.620801
 30
0.0
 11
-26.716026
 21
66.382856
 31
0.0
  0
LINE
  5
57
100
AcDbEntity
  8
EBENE_1
 62
     7
100
AcDbLine
 10
-26.716026
 20
66.382856
 30
0.0
 11
-26.292624
 21
67.314065
 31
0.0
  0
LINE
  5
56
100
AcDbEntity
  8
EBENE_1
 62
     7
100
AcDbLine
 10
-26.292624
 20
67.314065
 30
0.0
 11
-26.123298
 21
68.330196
 31
0.0
  0
LINE
  5
55
100
AcDbEntity
  8
EBENE_1
 62
     7
100
AcDbLine
 10
-29.679325
 20
70.616189
 30
0.0
 11
-29.933229
 21
70.53144
 31
0.0
  0
LINE
  5
54
100
AcDbEntity
  8
EBENE_1
 62
     7
100
AcDbLine
 10
-29.933229
 20
70.53144
 30
0.0
 11
-30.102555
 21
70.277536
 31
0.0
  0
LINE
  5
53
100
AcDbEntity
  8
EBENE_1
 62
     7
100
AcDbLine
 10
-29.679325
 20
70.616189
 30
0.0
 11
-29.255923
 21
70.616189
 31
0.0
  0
LINE
  5
52
100
AcDbEntity
  8
EBENE_1
 62
     7
100
AcDbLine
 10
-28.91727
 20
70.277536
 30
0.0
 11
-29.00202
 21
70.53144
 31
0.0
  0
LINE
  5
51
100
AcDbEntity
  8
EBENE_1
 62
     7
100
AcDbLine
 10
-29.00202
 20
70.53144
 30
0.0
 11
-29.255923
 21
70.616189
 31
0.0
  0
LINE
  5
50
100
AcDbEntity
  8
EBENE_1
 62
     7
100
AcDbLine
 10
-28.91727
 20
70.277536
 30
0.0
 11
-28.91727
 21
68.922753
 31
0.0
  0
LINE
  5
4F
100
AcDbEntity
  8
EBENE_1
 62
     7
100
AcDbLine
 10
-28.91727
 20
68.922753
 30
0.0
 11
-27.562659
 21
68.922753
 31
0.0
  0
LINE
  5
4E
100
AcDbEntity
  8
EBENE_1
 62
     7
100
AcDbLine
 10
-27.224006
 20
68.5841
 30
0.0
 11
-27.308583
 21
68.838175
 31
0.0
  0
LINE
  5
4D
100
AcDbEntity
  8
EBENE_1
 62
     7
100
AcDbLine
 10
-27.308583
 20
68.838175
 30
0.0
 11
-27.562659
 21
68.922753
 31
0.0
  0
LINE
  5
4C
100
AcDbEntity
  8
EBENE_1
 62
     7
100
AcDbLine
 10
-27.224006
 20
68.5841
 30
0.0
 11
-27.224006
 21
68.16087
 31
0.0
  0
LINE
  5
4B
100
AcDbEntity
  8
EBENE_1
 62
     7
100
AcDbLine
 10
-27.562659
 20
67.737467
 30
0.0
 11
-27.308583
 21
67.906794
 31
0.0
  0
LINE
  5
4A
100
AcDbEntity
  8
EBENE_1
 62
     7
100
AcDbLine
 10
-27.308583
 20
67.906794
 30
0.0
 11
-27.224006
 21
68.16087
 31
0.0
  0
LINE
  5
49
100
AcDbEntity
  8
EBENE_1
 62
     7
100
AcDbLine
 10
-27.562659
 20
67.737467
 30
0.0
 11
-28.91727
 21
67.737467
 31
0.0
  0
LINE
  5
48
100
AcDbEntity
  8
EBENE_1
 62
     7
100
AcDbLine
 10
-28.91727
 20
67.737467
 30
0.0
 11
-28.91727
 21
66.467433
 31
0.0
  0
LINE
  5
47
100
AcDbEntity
  8
EBENE_1
 62
     7
100
AcDbLine
 10
-29.255923
 20
66.044203
 30
0.0
 11
-29.00202
 21
66.12878
 31
0.0
  0
LINE
  5
46
100
AcDbEntity
  8
EBENE_1
 62
     7
100
AcDbLine
 10
-29.00202
 20
66.12878
 30
0.0
 11
-28.91727
 21
66.467433
 31
0.0
  0
LINE
  5
45
100
AcDbEntity
  8
EBENE_1
 62
     7
100
AcDbLine
 10
-29.255923
 20
66.044203
 30
0.0
 11
-29.679325
 21
66.044203
 31
0.0
  0
LINE
  5
44
100
AcDbEntity
  8
EBENE_1
 62
     7
100
AcDbLine
 10
-30.102555
 20
66.467433
 30
0.0
 11
-29.933229
 21
66.12878
 31
0.0
  0
LINE
  5
43
100
AcDbEntity
  8
EBENE_1
 62
     7
100
AcDbLine
 10
-29.933229
 20
66.12878
 30
0.0
 11
-29.679325
 21
66.044203
 31
0.0
  0
LINE
  5
42
100
AcDbEntity
  8
EBENE_1
 62
     7
100
AcDbLine
 10
-30.102555
 20
66.467433
 30
0.0
 11
-30.102555
 21
67.737467
 31
0.0
  0
LINE
  5
41
100
AcDbEntity
  8
EBENE_1
 62
     7
100
AcDbLine
 10
-30.102555
 20
67.737467
 30
0.0
 11
-31.37259
 21
67.737467
 31
0.0
  0
LINE
  5
40
100
AcDbEntity
  8
EBENE_1
 62
     7
100
AcDbLine
 10
-31.795992
 20
68.16087
 30
0.0
 11
-31.711243
 21
67.906794
 31
0.0
  0
LINE
  5
3F
100
AcDbEntity
  8
EBENE_1
 62
     7
100
AcDbLine
 10
-31.711243
 20
67.906794
 30
0.0
 11
-31.37259
 21
67.737467
 31
0.0
  0
LINE
  5
3E
100
AcDbEntity
  8
EBENE_1
 62
     7
100
AcDbLine
 10
-31.795992
 20
68.16087
 30
0.0
 11
-31.795992
 21
68.5841
 31
0.0
  0
LINE
  5
3D
100
AcDbEntity
  8
EBENE_1
 62
     7
100
AcDbLine
 10
-31.37259
 20
68.922753
 30
0.0
 11
-31.711243
 21
68.838175
 31
0.0
  0
LINE
  5
3C
100
AcDbEntity
  8
EBENE_1
 62
     7
100
AcDbLine
 10
-31.711243
 20
68.838175
 30
0.0
 11
-31.795992
 21
68.5841
 31
0.0
  0
LINE
  5
3B
100
AcDbEntity
  8
EBENE_1
 62
     7
100
AcDbLine
 10
-31.37259
 20
68.922753
 30
0.0
 11
-30.102555
 21
68.922753
 31
0.0
  0
LINE
  5
3A
100
AcDbEntity
  8
EBENE_1
 62
     7
100
AcDbLine
 10
-30.102555
 20
68.922753
 30
0.0
 11
-30.102555
 21
70.277536
 31
0.0
  0
LINE
  5
39
100
AcDbEntity
  8
EBENE_1
 62
     7
100
AcDbLine
 10
-16.979325
 20
57.83144
 30
0.0
 11
-16.386597
 21
58.000766
 31
0.0
  0
LINE
  5
38
100
AcDbEntity
  8
EBENE_1
 62
     7
100
AcDbLine
 10
-16.386597
 20
58.000766
 30
0.0
 11
-15.963367
 21
58.254842
 31
0.0
  0
LINE
  5
37
100
AcDbEntity
  8
EBENE_1
 62
     7
100
AcDbLine
 10
-15.963367
 20
58.254842
 30
0.0
 11
-15.624714
 21
58.762821
 31
0.0
  0
LINE
  5
36
100
AcDbEntity
  8
EBENE_1
 62
     7
100
AcDbLine
 10
-15.624714
 20
58.762821
 30
0.0
 11
-15.455215
 21
59.35555
 31
0.0
  0
LINE
  5
35
100
AcDbEntity
  8
EBENE_1
 62
     7
100
AcDbLine
 10
-18.16461
 20
57.83144
 30
0.0
 11
-16.979325
 21
57.83144
 31
0.0
  0
LINE
  5
34
100
AcDbEntity
  8
EBENE_1
 62
     7
100
AcDbLine
 10
-25.02259
 20
68.838175
 30
0.0
 11
-16.979325
 21
68.838175
 31
0.0
  0
LINE
  5
33
100
AcDbEntity
  8
EBENE_1
 62
     7
100
AcDbLine
 10
-24.006631
 20
68.838175
 30
0.0
 11
-24.175958
 21
68.838175
 31
0.0
  0
LINE
  5
32
100
AcDbEntity
  8
EBENE_1
 62
     7
100
AcDbLine
 10
-15.455215
 20
67.314065
 30
0.0
 11
-15.624714
 21
67.906794
 31
0.0
  0
LINE
  5
31
100
AcDbEntity
  8
EBENE_1
 62
     7
100
AcDbLine
 10
-15.624714
 20
67.906794
 30
0.0
 11
-15.963367
 21
68.414773
 31
0.0
  0
LINE
  5
30
100
AcDbEntity
  8
EBENE_1
 62
     7
100
AcDbLine
 10
-15.963367
 20
68.414773
 30
0.0
 11
-16.386597
 21
68.753426
 31
0.0
  0
LINE
  5
2F
100
AcDbEntity
  8
EBENE_1
 62
     7
100
AcDbLine
 10
-16.386597
 20
68.753426
 30
0.0
 11
-16.979325
 21
68.838175
 31
0.0
  0
LINE
  5
2E
100
AcDbEntity
  8
EBENE_1
 62
     7
100
AcDbLine
 10
-15.455215
 20
59.35555
 30
0.0
 11
-15.455215
 21
67.314065
 31
0.0
  0
LINE
  5
2D
100
AcDbEntity
  8
EBENE_1
 62
     7
100
AcDbLine
 10
-34.505215
 20
77.304842
 30
0.0
 11
-33.235353
 21
77.304842
 31
0.0
  0
LINE
  5
2C
100
AcDbEntity
  8
EBENE_1
 62
     7
100
AcDbLine
 10
57.612332
 20
77.304842
 30
0.0
 11
46.605252
 21
77.304842
 31
0.0
  0
ENDBLK
  5
5B5
100
AcDbEntity
  8
EBENE_1
100
AcDbBlockEnd
  0
ENDSEC
  0
SECTION
  2
ENTITIES
  0
INSERT
  5
2A
100
AcDbEntity
  8
EBENE_1
 62
     7
100
AcDbBlockReference
  2
AI9-BLK1
 10
94.830387
 20
100.085881
 30
0.0
  0
ENDSEC
  0
SECTION
  2
OBJECTS
  0
DICTIONARY
  5
19
100
AcDbDictionary
280
     0
281
     1
  3
ACAD_GROUP
350
1A
  3
ACAD_MLINESTYLE
350
1B
  3
ACAD_LAYOUT
350
1E
  3
ACAD_PLOTSETTINGS
350
22
  3
ACAD_PLOTSTYLENAME
350
1F
  3
ACAD_WIPEOUT_VARS
350
23
  0
DICTIONARY
  5
1A
102
{ACAD_REACTORS
330
19
102
}
100
AcDbDictionary
280
     0
281
     1
  0
DICTIONARY
  5
1B
102
{ACAD_REACTORS
330
19
102
}
100
AcDbDictionary
280
     0
281
     1
  3
Standard
350
1C
  0
MLINESTYLE
  5
1C
102
{ACAD_REACTORS
330
1B
102
}
100
AcDbMlineStyle
  2
Standard
 70
     0
  3

 62
     0
 51
90.0
 52
90.0
 71
     2
 49
0.5
 62
   256
  6
ByLayer
 49
-0.5
 62
   256
  6
ByLayer
  0
ACDBDICTIONARYWDFLT
  5
1F
102
{ACAD_REACTORS
330
19
102
}
100
AcDbDictionary
281
     1
  3
Normal
350
1D
100
AcDbDictionaryWithDefault
340
1D
  0
ACDBPLACEHOLDER
  5
1D
102
{ACAD_REACTORS
330
1F
102
}
  0
LAYOUT
  5
20
102
{ACAD_REACTORS
330
1E
102
}
100
AcDbPlotSettings
  1

  2

  4

  6

 40
0.0
 41
0.0
 42
0.0
 43
0.0
 44
0.0
 45
0.0
 46
0.0
 47
0.0
 48
0.0
 49
0.0
140
0.0
141
0.0
142
1.0
143
1.0
 70
  1024
 72
     0
 73
     0
 74
     0
  7

 75
     0
147
1.0
148
0.0
149
0.0
100
AcDbLayout
  1
Model
 70
     0
 71
     0
 10
0.0
 20
0.0
 11
0.0
 21
0.0
 12
0.0
 22
0.0
 32
0.0
 14
0.0
 24
0.0
 34
0.0
 15
0.0
 25
0.0
 35
0.0
146
0.0
 13
0.0
 23
0.0
 33
0.0
 16
0.0
 26
0.0
 36
0.0
 17
0.0
 27
0.0
 37
0.0
 76
     0
330
A
331
0
345
0
346
0
  0
LAYOUT
  5
21
102
{ACAD_REACTORS
330
1E
102
}
100
AcDbPlotSettings
  1

  2

  4

  6

 40
0.0
 41
0.0
 42
0.0
 43
0.0
 44
0.0
 45
0.0
 46
0.0
 47
0.0
 48
0.0
 49
0.0
140
0.0
141
0.0
142
1.0
143
1.0
 70
     0
 72
     0
 73
     0
 74
     0
  7

 75
     0
147
1.0
148
0.0
149
0.0
100
AcDbLayout
  1
Layout1
 70
     0
 71
     0
 10
0.0
 20
0.0
 11
0.0
 21
0.0
 12
0.0
 22
0.0
 32
0.0
 14
0.0
 24
0.0
 34
0.0
 15
0.0
 25
0.0
 35
0.0
146
0.0
 13
0.0
 23
0.0
 33
0.0
 16
0.0
 26
0.0
 36
0.0
 17
0.0
 27
0.0
 37
0.0
 76
     0
330
B
331
0
345
0
346
0
  0
DICTIONARY
  5
1E
102
{ACAD_REACTORS
330
19
102
}
100
AcDbDictionary
280
     0
281
     1
  3
Layout1
350
21
  3
Model
350
20
  0
DICTIONARY
  5
22
102
{ACAD_REACTORS
330
19
102
}
100
AcDbDictionary
280
     0
281
     1
  0
WIPEOUTVARIABLES
  5
23
100
AcDbWipeoutVariables
 70
     1
  0
ENDSEC
  0
EOF
