  0
SECTION
  2
HEADER
  9
$ACADVER
  1
AC1009
  9
$INSBASE
 10
0
 20
0
  9
$EXTMIN
 10
-15.8594407887264
 20
-308
  9
$EXTMAX
 10
310.7351438189563
 20
14.7097947887263
  9
$LIMMIN
 10
-15.8594407887264
 20
-308
  9
$LIMMAX
 10
310.7351438189563
 20
14.7097947887263
  9
$VIEWCTR
 10
10
 20
10
  9
$VIEWSIZE
 40
10
  9
$SNAPMODE
 70
0
  9
$SNAPUNIT
 10
1
 20
1
  9
$SNAPBASE
 10
0
 20
0
  9
$SNAPANG
 50
0
  9
$SNAPSTYLE
 70
0
  9
$SNAPISOPAIR
 70
0
  9
$GRIDMODE
 70
0
  9
$GRIDUNIT
 10
0
 20
0
  9
$ORTHOMODE
 70
0
  9
$REGENMODE
 70
1
  9
$FILLMODE
 70
1
  9
$QTEXTMODE
 70
0
  9
$DRAGMODE
 70
2
  9
$LTSCALE
 40
1
  9
$OSMODE
 70
0
  9
$ATTMODE
 70
1
  9
$TEXTSIZE
 40
3.5
  9
$TRACEWID
 40
0.5
  9
$TEXTSTYLE
  7
STANDARD
  9
$CLAYER
  8
0
  9
$CELTYPE
  6
BYLAYER
  9
$CECOLOR
 62
256
  9
$DIMSCALE
 40
1
  9
$DIMASZ
 40
0.18
  9
$DIMEXO
 40
0.0625
  9
$DIMDLI
 40
0.38
  9
$DIMRND
 40
0
  9
$DIMDLE
 40
0
  9
$DIMEXE
 40
0.18
  9
$DIMTP
 40
0
  9
$DIMTM
 40
0
  9
$DIMTXT
 40
0.18
  9
$DIMCEN
 40
0.09
  9
$DIMTSZ
 40
0
  9
$DIMTOL
 70
0
  9
$DIMLIM
 70
0
  9
$DIMTIH
 70
1
  9
$DIMTOH
 70
1
  9
$DIMSE1
 70
0
  9
$DIMSE2
 70
0
  9
$DIMTAD
 70
0
  9
$DIMZIN
 70
0
  9
$DIMBLK
  1

  9
$DIMASO
 70
1
  9
$DIMSHO
 70
1
  9
$DIMPOST
  1

  9
$DIMAPOST
  1

  9
$DIMALT
 70
0
  9
$DIMALTD
 70
2
  9
$DIMALTF
 40
25.4
  9
$DIMLFAC
 40
1
  9
$DIMTOFL
 70
0
  9
$DIMTVP
 40
0
  9
$DIMTIX
 70
0
  9
$DIMSOXD
 70
0
  9
$DIMSAH
 70
0
  9
$DIMBLK1
  1

  9
$DIMBLK2
  1

  9
$DIMSTYLE
  2
*UNNAMED
  9
$DIMCLRD
 70
0
  9
$DIMCLRE
 70
0
  9
$DIMCLRT
 70
0
  9
$DIMTFAC
 40
1
  9
$DIMGAP
 40
0.09
  9
$LUNITS
 70
2
  9
$LUPREC
 70
4
  9
$AXISMODE
 70
0
  9
$AXISUNIT
 10
0
 20
0
  9
$SKETCHINC
 40
0.1
  9
$FILLETRAD
 40
2
  9
$AUNITS
 70
0
  9
$AUPREC
 70
0
  9
$MENU
  1
ACAD
  9
$ELEVATION
 40
0
  9
$THICKNESS
 40
0
  9
$VIEWDIR
 10
0
 20
0
 30
1
  9
$LIMCHECK
 70
0
  9
$BLIPMODE
 70
1
  9
$CHAMFERA
 40
0
  9
$CHAMFERB
 40
0
  9
$FASTZOOM
 70
1
  9
$SKPOLY
 70
0
  9
$ANGBASE
 50
0
  9
$ANGDIR
 70
0
  9
$PDMODE
 70
0
  9
$PDSIZE
 40
0
  9
$PLINEWID
 40
0
  9
$COORDS
 70
2
  0
ENDSEC
  0
SECTION
  2
TABLES
  0
TABLE
  2
DIMSTYLE
 70
0
  0
ENDTAB
  0
TABLE
  2
LTYPE
 70
9
  0
LTYPE
  2
CONTINUOUS
 70
64
  3
Solid line
 72
65
 73
0
 40
0
  0
LTYPE
  2
BORDER
 70
64
  3
__ __ . __ __ .
 72
65
 73
6
 40
15.04054008061697
 49
4.297297165890562
 49
-2.148648582945281
 49
4.297297165890562
 49
-2.148648582945281
 49
0
 49
-2.148648582945281
  0
LTYPE
  2
CENTER
 70
64
  3
____ _ ____ _
 72
65
 73
4
 40
17.18918866356225
 49
10.74324291472641
 49
-2.148648582945281
 49
2.148648582945281
 49
-2.148648582945281
  0
LTYPE
  2
DASHDOT
 70
64
  3
__ . __ . __ .
 72
65
 73
4
 40
8.594594331781124
 49
4.297297165890562
 49
-2.148648582945281
 49
0
 49
-2.148648582945281
  0
LTYPE
  2
DASHED
 70
64
  3
__ __ __ __ __
 72
65
 73
2
 40
6.445945748835843
 49
4.297297165890562
 49
-2.148648582945281
  0
LTYPE
  2
DIVIDE
 70
64
  3
__ . . __ . . 
 72
65
 73
6
 40
10.74324291472641
 49
4.297297165890562
 49
-2.148648582945281
 49
0
 49
-2.148648582945281
 49
0
 49
-2.148648582945281
  0
LTYPE
  2
DOT
 70
64
  3
..............
 72
65
 73
4
 40
4.297297165890562
 49
0
 49
-2.148648582945281
 49
0
 49
-2.148648582945281
  0
LTYPE
  2
HIDDEN
 70
64
  3
_ _ _ _ _ _ _
 72
65
 73
2
 40
3.222972874417922
 49
2.148648582945281
 49
-1.074324291472641
  0
LTYPE
  2
PHANTOM
 70
64
  3
_____ _ _ _____ _ _ 
 72
65
 73
6
 40
21.48648582945281
 49
10.74324291472641
 49
-2.148648582945281
 49
2.148648582945281
 49
-2.148648582945281
 49
2.148648582945281
 49
-2.148648582945281
  0
ENDTAB
  0
TABLE
  2
LAYER
 70
3
  0
LAYER
  2
100
 70
0
 62
7
  6
CONTINUOUS
  0
LAYER
  2
0
 70
0
 62
7
  6
CONTINUOUS
  0
ENDTAB
  0
TABLE
  2
STYLE
 70
4
  0
STYLE
  2
STANDARD
 70
0
 40
0
 41
1
 50
0
 71
0
 42
3.5
  3
txt
  4

  0
STYLE
  2
SIMPLEX
 70
0
 40
0
 41
1
 50
0
 71
0
 42
3.5
  3
simplex
  4

  0
STYLE
  2
COMPLEX
 70
0
 40
0
 41
1
 50
0
 71
0
 42
3.5
  3
complex
  4

  0
STYLE
  2
ITALIC
 70
0
 40
0
 41
1
 50
0
 71
0
 42
3.5
  3
italic
  4

  0
ENDTAB
  0
TABLE
  2
VIEW
 70
0
  0
ENDTAB
  0
ENDSEC
  0
SECTION
  2
BLOCKS
  0
ENDSEC
  0
SECTION
  2
ENTITIES
  0
LINE
  8
100
 62
7
 10
238
 20
8.925000000000011
 30
0
 11
238
 21
-8.925000000000011
 31
0
  0
LINE
  8
100
 62
1
  6
DASHED
 10
238
 20
-4.050000000000011
 30
0
 11
288
 21
-4.050000000000011
 31
0
  0
LINE
  8
100
 62
1
  6
DASHED
 10
288
 20
-4.050000000000011
 30
0
 11
288
 21
4.050000000000011
 31
0
  0
LINE
  8
100
 62
1
  6
DASHED
 10
288
 20
4.050000000000011
 30
0
 11
238
 21
4.050000000000011
 31
0
  0
LINE
  8
100
 62
7
 10
250
 20
-12
 30
0
 11
250
 21
12
 31
0
  0
LINE
  8
100
 62
1
  6
DASHED
 10
293
 20
-2.5
 30
0
 11
293
 21
2.5
 31
0
  0
LINE
  8
100
 62
1
  6
DASHDOT
 10
235.4923106736241
 20
0
 30
0
 11
310.7351438189563
 21
0
 31
0
  0
LINE
  8
100
 62
7
 10
238
 20
-8.925000000000011
 30
0
 11
249.9999999999999
 21
-8.925000000000011
 31
0
  0
LINE
  8
100
 62
7
 10
250
 20
-12
 30
0
 11
300.8871431890763
 21
-9.990001345203609
 31
0
  0
LINE
  8
100
 62
7
 10
308
 20
-2.5
 30
0
 11
308
 21
2.5
 31
0
  0
LINE
  8
100
 62
7
 10
300.8871431890763
 20
9.990001345203609
 30
0
 11
250
 21
12
 31
0
  0
LINE
  8
100
 62
7
 10
249.9999999999999
 20
8.925000000000011
 30
0
 11
238
 21
8.925000000000011
 31
0
  0
LINE
  8
100
 62
1
  6
DASHED
 10
-4.05
 20
4.049999999999997
 30
0
 11
-4.05
 21
-4.049999999999997
 31
0
  0
LINE
  8
100
 62
1
  6
DASHED
 10
4.05
 20
4.049999999999997
 30
0
 11
-4.05
 21
4.049999999999997
 31
0
  0
LINE
  8
100
 62
1
  6
DASHED
 10
4.05
 20
-4.049999999999997
 30
0
 11
4.05
 21
4.049999999999997
 31
0
  0
LINE
  8
100
 62
1
  6
DASHED
 10
-4.05
 20
-4.049999999999997
 30
0
 11
4.05
 21
-4.049999999999997
 31
0
  0
LINE
  8
100
 62
1
  6
DASHED
 10
-4.05
 20
-288
 30
0
 11
4.049999999999999
 21
-288
 31
0
  0
LINE
  8
100
 62
7
 10
-8.925000000000001
 20
-238
 30
0
 11
8.925000000000001
 21
-238
 31
0
  0
LINE
  8
100
 62
1
  6
DASHED
 10
4.05
 20
-238
 30
0
 11
4.049999999999999
 21
-288
 31
0
  0
LINE
  8
100
 62
1
  6
DASHED
 10
-4.05
 20
-238
 30
0
 11
-4.05
 21
-288
 31
0
  0
LINE
  8
100
 62
1
  6
DASHDOT
 10
-15.8594407887264
 20
0
 30
0
 11
127.074055648241
 21
0
 31
0
  0
LINE
  8
100
 62
1
  6
DASHDOT
 10
0
 20
14.7097947887263
 30
0
 11
0
 21
-15.550900402884
 31
0
  0
LINE
  8
100
 62
7
 10
115.2313989431589
 20
-7.996652707796301
 30
0
 11
4.289989865834731
 21
-11.2069615396429
 31
0
  0
LINE
  8
100
 62
7
 10
4.289989865834717
 20
11.20696153964292
 30
0
 11
115.2313989431589
 21
7.996652707796301
 31
0
  0
LINE
  8
100
 62
7
 10
-12
 20
-250
 30
0
 11
-10.95682975274616
 21
-279.8724874175625
 31
0
  0
LINE
  8
100
 62
7
 10
10.96456408804483
 20
-279.651005032975
 30
0
 11
12
 21
-250
 31
0
  0
LINE
  8
100
 62
7
 10
12
 20
-250
 30
0
 11
-12
 21
-250
 31
0
  0
LINE
  8
100
 62
7
 10
-8.925000000000001
 20
-250
 30
0
 11
-8.925000000000001
 21
-238
 31
0
  0
LINE
  8
100
 62
7
 10
8.925000000000001
 20
-238
 30
0
 11
8.925000000000001
 21
-250
 31
0
  0
LINE
  8
100
 62
7
 10
49.03261406252581
 20
-308
 30
0
 11
41.30430431670294
 21
-308
 31
0
  0
LINE
  8
100
 62
1
  6
DASHDOT
 10
0
 20
-235.1394217361219
 30
0
 11
0
 21
-292.5090908953999
 31
0
  0
ARC
  8
100
 62
7
 10
115
 20
0
 30
0
 40
8.00000000000006
 50
271.6575040327283
 51
88.3424959672717
  0
ARC
  8
100
 62
7
 10
117.5
 20
-280.5
 30
0
 40
5.499999999999998
 50
323.8600302508057
 51
138.7789843125233
  0
ARC
  8
100
 62
1
  6
DASHED
 10
300.5
 20
-2.5
 30
0
 40
7.5
 50
180
 51
272.9588711006614
  0
ARC
  8
100
 62
1
  6
DASHED
 10
300.5
 20
2.5
 30
0
 40
7.500000000000004
 50
87.04112889933862
 51
180
  0
ARC
  8
100
 62
7
 10
300.5
 20
-2.5
 30
0
 40
7.500000000000004
 50
272.9588711006614
 51
0
  0
ARC
  8
100
 62
7
 10
300.5
 20
2.5
 30
0
 40
7.5
 50
0
 51
87.04112889933862
  0
ARC
  8
100
 62
1
  6
DASHED
 10
0
 20
0
 30
0
 40
11.99999999999999
 50
290.9466898075801
 51
69.05331019242004
  0
ARC
  8
100
 62
7
 10
0
 20
0
 30
0
 40
12.00000000000001
 50
69.05331019242004
 51
290.9466898075801
  0
ARC
  8
100
 62
7
 10
49.78554296903493
 20
-143
 30
0
 40
150
 50
258.1173629920743
 51
269.4188033503158
  0
ARC
  8
100
 62
7
 10
20.95847235823578
 20
-280
 30
0
 40
9.999999999999995
 50
177.9999999999999
 51
258.1173629920743
  0
ARC
  8
100
 62
7
 10
14.02794092273123
 20
-279
 30
0
 40
25
 50
182
 51
253.3144101118529
  0
ARC
  8
100
 62
7
 10
49.03261406252581
 20
-108
 30
0
 40
200
 50
270
 51
278.1096144559941
  0
ARC
  8
100
 62
7
 10
41.30430431670294
 20
-188
 30
0
 40
120
 50
253.3144101118529
 51
270
  0
ARC
  8
100
 62
7
 10
63.13935004219169
 20
-207
 30
0
 40
100
 50
278.1096144559942
 51
294.1035577891529
  0
ARC
  8
100
 62
7
 10
85.6006428607399
 20
-257.2044851076021
 30
0
 40
44.99999999999994
 50
294.103557789153
 51
323.8600302508059
  0
ARC
  8
100
 62
7
 10
51.30708614590601
 20
6.992282822687002
 30
0
 40
300
 50
269.4188033503158
 51
276.7793306446233
  0
ARC
  8
100
 62
7
 10
81.76123645619553
 20
-249.1899151165716
 30
0
 40
42.01400462019026
 50
276.7793306446233
 51
318.7789843125232
  0
CIRCLE
  8
100
 62
1
  6
DASHED
 10
0
 20
0
 30
0
 40
8.925000000000001
  0
TEXT
  8
100
 62
7
 10
125
 20
-175
 30
0
 40
5
  1
Tuerdruecker
 41
0.9
  7
SIMPLEX
  0
TEXT
  8
100
 62
7
 10
125
 20
-185
 30
0
 40
5
  1
10230001
 41
0.9
  7
SIMPLEX
  0
ENDSEC
  0
EOF
