  0
SECTION
  2
HEADER
  0
ENDSEC
  0
SECTION
  2
TABLES
  0
TABLE
  2
LTYPE
 70
     4
  0
LTYPE
  2
CONTINUOUS
 70
    64
  3
Style 1 Solid Line
 72
    65
 73
     0
 40
             .000000
  0
LTYPE
  2
DASHED
 70
    64
  3
Style 1 Dashed Line
 72
    65
 73
     2
 40
             .300000
 49
             .170000
 49
            -.130000
  0
LTYPE
  2
DSH1
 70
64
  3
Style 2 Dashed Line
 72
65
 73
2
 40
.075
 49
.04
 49
-.035
  0
LTYPE
  2
DSH2
 70
64
  3
Style 2 Dashed Line
 72
65
 73
2
 40
.15
 49
.11
 49
-.04
  0
LTYPE
  2
DSH3
 70
64
  3
Style 2 Dashed Line
 72
65
 73
2
 40
.2
 49
.15
 49
-.05
  0
LTYPE
  2
DSH4
 70
64
  3
Style 2 Dashed Line
 72
65
 73
2
 40
.36
 49
.28
 49
-.08
  0
LTYPE
  2
DSH5
 70
64
  3
Style 2 Dashed Line
 72
65
 73
2
 40
.47
 49
.39
 49
-.08
  0
LTYPE
  2
DSH6
 70
64
  3
Style 2 Dashed Line
 72
65
 73
2
 40
.9
 49
.81
 49
-.09
  0
LTYPE
  2
STCH
 70
64
  3
Style 2 Dashed Line
 72
65
 73
2
 40
.12
 49
.06
 49
-.06
  0
LTYPE
  2
CENTER
 70
    64
  3
Style 1 Center Line
 72
    65
 73
     4
 40
             .700000
 49
             .400000
 49
            -.100000
 49
             .100000
 49
            -.100000
  0
LTYPE
  2
CL1
 70
64
  3
Style 2 Center Line
 72
65
 73
4
 40
.7
 49
.45
 49
-.06
 49
.13
 49
-.06
  0
LTYPE
  2
CL2
 70
64
  3
Style 2 Center Line
 72
65
 73
4
 40
1.2
 49
1.01
 49
-.06
 49
.11
 49
-.06
  0
LTYPE
  2
CL3
 70
64
  3
Style 2 Center Line
 72
65
 73
4
 40
1.2
 49
.98
 49
-.06
 49
.1
 49
-.06
  0
LTYPE
  2
CL4
 70
64
  3
Style 2 Center Line
 72
65
 73
4
 40
2.2
 49
1.93
 49
-.07
 49
.13
 49
-.07
  0
LTYPE
  2
CL5
 70
64
  3
Style 2 Center Line
 72
65
 73
4
 40
3.0
 49
2.65
 49
-.1
 49
.15
 49
-.1
  0
LTYPE
  2
PHANTOM
 70
    64
  3
Style 1 Phantom Line
 72
    65
 73
     6
 40
            1.000000
 49
             .500000
 49
            -.100000
 49
             .100000
 49
            -.100000
 49
             .100000
 49
            -.100000
  0
LTYPE
  2
PL1
 70
64
  3
Style 2 Phantom Line
 72
65
 73
6
 40
1.0
 49
.6
 49
-.08
 49
.08
 49
-.08
 49
.08
 49
-.08
  0
LTYPE
  2
PL2
 70
64
  3
Style 2 Phantom Line
 72
65
 73
6
 40
1.08
 49
.6
 49
-.08
 49
.12
 49
-.08
 49
.12
 49
-.08
  0
LTYPE
  2
PL3
 70
64
  3
Style 2 Phantom Line
 72
65
 73
6
 40
2.0
 49
1.44
 49
-.08
 49
.16
 49
-.08
 49
.16
 49
-.08
  0
LTYPE
  2
SBK1
 70
64
  3
Style 2 Line
 72
65
 73
8
 40
2.7
 49
2.08
 49
-.08
 49
.1
 49
-.08
 49
.1
 49
-.08
 49
.1
 49
-.08
  0
LTYPE
  2
SBK2
 70
64
  3
Style 2 Line
 72
65
 73
8
 40
3.71
 49
3.0
 49
-.08
 49
.13
 49
-.08
 49
.13
 49
-.08
 49
.13
 49
-.08
  0
LTYPE
  2
MTCH
 70
64
  3
Style 2 Line
 72
65
 73
6
 40
2.0
 49
1.44
 49
-.08
 49
.16
 49
-.08
 49
.16
 49
-.08
  0
LTYPE
  2
DOT
 70
    64
  3
Style 1 Dot Line
 72
    65
 73
     2
 40
           .250000
 49
           .000000
 49
          -.250000
  0
ENDTAB
  0
TABLE
  2
LAYER
 70
    10
  0
LAYER
  2
0
 70
     0
 62
     7
  6
CONTINUOUS
  0
LAYER
  2
DASHED
 70
     0
 62
     7
  6
DASHED
  0
LAYER
  2
CENTER
 70
     0
 62
     7
  6
CENTER
  0
LAYER
  2
PHANTOM
 70
     0
 62
     7
  6
PHANTOM
  0
LAYER
  2
DIMENSIONS
 70
     0
 62
     7
  6
CONTINUOUS
  0
LAYER
  2
99NC
 70
     0
 62
     7
  6
DOT
  0
LAYER
  2
NC
 70
     0
 62
     7
  6
DOT
  0
LAYER
  2
999
 70
     1
 62
     7
  6
CONTINUOUS
  0
ENDTAB
  0
TABLE
  2
STYLE
 70
     1
  0
STYLE
  2
STANDARD
 70
     0
 40
             .000000
 50
             .000000
 71
     0
 41
            1.000000
 42
            1.000000
  3
MONOTXT
  0
ENDTAB
  0
TABLE
  2
VIEW
 70
     1
  0
ENDTAB
  0
ENDSEC
  0
SECTION
  2
BLOCKS
  0
BLOCK
  8
0
  2
ELLIPSE
 70
     0
 10
             .000000
 20
             .000000
  0
CIRCLE
  8
0
 10
             .000000
 20
             .000000
 40
            1.000000
  0
ENDBLK
  8
0
  0
BLOCK
  8
0
  2
*d1
 70
    65
 10
             .000000
 20
             .000000
  0
TEXT
  8
0
 10
           -6.408673
 20
           47.206090
 40
            3.000000
  1
14
 50
          359.899900
 41
            1.000000
 72
     1
 11
           -3.408678
 21
           47.200740
  0
LINE
  8
0
 10
           -9.940022
 20
           46.453520
 11
           -6.940078
 21
           47.453670
  0
LINE
  8
0
 10
           -9.940022
 20
           46.453520
 11
           -6.940078
 21
           45.453380
  0
LINE
  8
0
 10
             .000000
 20
           46.453520
 11
           -2.999943
 21
           45.453380
  0
LINE
  8
0
 10
             .000000
 20
           46.453520
 11
           -2.999943
 21
           47.453670
  0
LINE
  8
0
 10
           -9.940022
 20
           46.453520
 11
             .000000
 21
           46.453520
  0
LINE
  8
0
 10
           -9.940022
 20
           57.509980
 11
           -9.940022
 21
           44.929520
  0
LINE
  8
0
 10
             .000000
 20
             .000000
 11
             .000000
 21
           47.977520
  0
ENDBLK
  8
0
  0
BLOCK
  8
0
  2
*d2
 70
    65
 10
             .000000
 20
             .000000
  0
TEXT
  8
0
 10
            7.542765
 20
            5.625459
 40
            3.000000
  1
3
 50
          359.899900
 41
            1.000000
 72
     1
 11
            9.042763
 21
            5.622788
  0
LINE
  8
0
 10
            2.129999
 20
            4.875461
 11
           10.106430
 21
            4.875461
  0
LINE
  8
0
 10
             .000000
 20
            4.875461
 11
           -2.999943
 21
            3.875315
  0
LINE
  8
0
 10
             .000000
 20
            4.875461
 11
           -2.999943
 21
            5.875607
  0
LINE
  8
0
 10
            2.129999
 20
            4.875461
 11
            5.129943
 21
            5.875607
  0
LINE
  8
0
 10
            2.129999
 20
            4.875461
 11
            5.129943
 21
            3.875315
  0
LINE
  8
0
 10
           -7.905675
 20
            4.875461
 11
             .000000
 21
            4.875461
  0
LINE
  8
0
 10
           10.035680
 20
            4.875461
 11
            2.129999
 21
            4.875461
  0
LINE
  8
0
 10
             .000000
 20
            4.875461
 11
            2.129999
 21
            4.875461
  0
LINE
  8
0
 10
             .000000
 20
             .000000
 11
             .000000
 21
            6.399461
  0
LINE
  8
0
 10
            2.129999
 20
             .000000
 11
            2.129999
 21
            6.399461
  0
ENDBLK
  8
0
  0
BLOCK
  8
0
  2
*d3
 70
    65
 10
             .000000
 20
             .000000
  0
TEXT
  8
0
 10
           32.286360
 20
           -4.646355
 40
            3.000000
  1
15
 50
          359.899900
 41
            1.000000
 72
     1
 11
           35.286350
 21
           -4.651697
  0
LINE
  8
0
 10
           28.400010
 20
           -5.398918
 11
           31.399960
 21
           -4.398772
  0
LINE
  8
0
 10
           28.400010
 20
           -5.398918
 11
           31.399960
 21
           -6.399064
  0
LINE
  8
0
 10
           39.050030
 20
           -5.398918
 11
           36.050090
 21
           -6.399064
  0
LINE
  8
0
 10
           39.050030
 20
           -5.398918
 11
           36.050090
 21
           -4.398772
  0
LINE
  8
0
 10
           28.400010
 20
           -5.398918
 11
           39.050030
 21
           -5.398918
  0
LINE
  8
0
 10
           28.400010
 20
           30.174990
 11
           28.400010
 21
           -6.922918
  0
LINE
  8
0
 10
           39.050030
 20
           24.849990
 11
           39.050030
 21
           -6.922918
  0
ENDBLK
  8
0
  0
BLOCK
  8
0
  2
*d4
 70
    65
 10
             .000000
 20
             .000000
  0
TEXT
  8
0
 10
           -5.698661
 20
          120.569600
 40
            3.000000
  1
12
 50
          359.899900
 41
            1.000000
 72
     1
 11
           -2.698666
 21
          120.564200
  0
LINE
  8
0
 10
           -8.520000
 20
          119.817000
 11
           -5.520056
 21
          120.817200
  0
LINE
  8
0
 10
           -8.520000
 20
          119.817000
 11
           -5.520056
 21
          118.816900
  0
LINE
  8
0
 10
             .000000
 20
          119.817000
 11
           -2.999943
 21
          118.816900
  0
LINE
  8
0
 10
             .000000
 20
          119.817000
 11
           -2.999943
 21
          120.817200
  0
LINE
  8
0
 10
           -8.520000
 20
          119.817000
 11
             .000000
 21
          119.817000
  0
LINE
  8
0
 10
           -8.520000
 20
          129.575000
 11
           -8.520000
 21
          118.293000
  0
LINE
  8
0
 10
             .000000
 20
          191.700000
 11
             .000000
 21
          118.293000
  0
ENDBLK
  8
0
  0
BLOCK
  8
0
  2
*d5
 70
    65
 10
             .000000
 20
             .000000
  0
TEXT
  8
0
 10
           14.201350
 20
           -4.648920
 40
            3.000000
  1
A
 50
          359.899900
 41
            1.000000
 72
     1
 11
           15.701340
 21
           -4.651590
  0
LINE
  8
0
 10
             .000000
 20
           -5.398918
 11
            2.999943
 21
           -4.398772
  0
LINE
  8
0
 10
             .000000
 20
           -5.398918
 11
            2.999943
 21
           -6.399064
  0
LINE
  8
0
 10
           28.400010
 20
           -5.398918
 11
           25.400070
 21
           -6.399064
  0
LINE
  8
0
 10
           28.400010
 20
           -5.398918
 11
           25.400070
 21
           -4.398772
  0
LINE
  8
0
 10
             .000000
 20
           -5.398918
 11
           28.400010
 21
           -5.398918
  0
LINE
  8
0
 10
             .000000
 20
             .000000
 11
             .000000
 21
           -6.922918
  0
LINE
  8
0
 10
           28.400010
 20
           12.431010
 11
           28.400010
 21
           -6.922918
  0
ENDBLK
  8
0
  0
BLOCK
  8
0
  2
*d6
 70
    65
 10
             .000000
 20
             .000000
  0
TEXT
  8
0
 10
           29.123450
 20
          122.942500
 40
            3.000000
  1
9
 50
            1.900000
 41
            1.000000
 72
     1
 11
           30.622620
 21
          122.992200
  0
LINE
  8
0
 10
           24.883440
 20
          122.044000
 11
           21.920230
 21
          120.939800
  0
LINE
  8
0
 10
           24.883440
 20
          122.044000
 11
           21.850430
 21
          122.938900
  0
LINE
  8
0
 10
           31.269530
 20
          122.267000
 11
           34.232740
 21
          123.371200
  0
LINE
  8
0
 10
           31.269530
 20
          122.267000
 11
           34.302540
 21
          121.372100
  0
LINE
  8
0
 10
           16.982590
 20
          121.768100
 11
           24.883440
 21
          122.044000
  0
LINE
  8
0
 10
           39.170380
 20
          122.542800
 11
           31.269530
 21
          122.267000
  0
LINE
  8
0
 10
           24.883440
 20
          122.044000
 11
           31.269530
 21
          122.267000
  0
LINE
  8
0
 10
           25.206950
 20
          112.778500
 11
           24.830260
 21
          123.567100
  0
LINE
  8
0
 10
           31.593030
 20
          113.001500
 11
           31.216340
 21
          123.790000
  0
ENDBLK
  8
0
  0
BLOCK
  8
0
  2
*d7
 70
    65
 10
             .000000
 20
             .000000
  0
TEXT
  8
0
 10
           12.823640
 20
           86.350620
 40
            3.000000
  1
9.5
 50
          359.899900
 41
            1.000000
 72
     1
 11
           17.323630
 21
           86.342610
  0
LINE
  8
0
 10
           25.027510
 20
           85.595490
 11
           10.137300
 21
           85.595490
  0
LINE
  8
0
 10
           25.027510
 20
           85.595490
 11
           22.027570
 21
           84.595350
  0
LINE
  8
0
 10
           25.027510
 20
           85.595490
 11
           22.027570
 21
           86.595640
  0
LINE
  8
0
 10
           31.772510
 20
           85.595490
 11
           34.772460
 21
           86.595640
  0
LINE
  8
0
 10
           31.772510
 20
           85.595490
 11
           34.772460
 21
           84.595350
  0
LINE
  8
0
 10
           17.121840
 20
           85.595490
 11
           25.027510
 21
           85.595490
  0
LINE
  8
0
 10
           39.678190
 20
           85.595490
 11
           31.772510
 21
           85.595490
  0
LINE
  8
0
 10
           25.027510
 20
           85.595490
 11
           31.772510
 21
           85.595490
  0
LINE
  8
0
 10
           25.027510
 20
           94.429980
 11
           25.027510
 21
           84.071490
  0
LINE
  8
0
 10
           31.772510
 20
           94.429980
 11
           31.772510
 21
           84.071490
  0
ENDBLK
  8
0
  0
BLOCK
  8
0
  2
*d8
 70
    65
 10
             .000000
 20
             .000000
  0
TEXT
  8
0
 10
           19.802270
 20
          138.757700
 40
            3.000000
  1
19
 50
          359.899900
 41
            1.000000
 72
     1
 11
           22.802270
 21
          138.752300
  0
LINE
  8
0
 10
           14.910020
 20
          138.005100
 11
           17.909960
 21
          139.005300
  0
LINE
  8
0
 10
           14.910020
 20
          138.005100
 11
           17.909960
 21
          137.005000
  0
LINE
  8
0
 10
           28.400010
 20
          138.005100
 11
           25.400070
 21
          137.005000
  0
LINE
  8
0
 10
           28.400010
 20
          138.005100
 11
           25.400070
 21
          139.005300
  0
LINE
  8
0
 10
           14.910020
 20
          138.005100
 11
           28.400010
 21
          138.005100
  0
LINE
  8
0
 10
           14.910020
 20
          113.784800
 11
           14.910020
 21
          114.993500
  0
LINE
  8
0
 10
           28.400010
 20
          253.920200
 11
           28.400010
 21
          136.923100
  0
LINE
  8
0
 10
           14.910020
 20
          119.556100
 11
           14.910020
 21
          139.087200
  0
ENDBLK
  8
0
  0
BLOCK
  8
0
  2
*d9
 70
    65
 10
             .000000
 20
             .000000
  0
TEXT
  8
0
 10
          -20.815950
 20
          139.719300
 40
            3.000000
  1
32
 50
           90.000000
 41
            1.000000
 72
     1
 11
          -20.815920
 21
          142.719300
  0
LINE
  8
0
 10
          -20.065930
 20
          152.295000
 11
          -19.065780
 21
          149.295000
  0
LINE
  8
0
 10
          -20.065930
 20
          152.295000
 11
          -21.066070
 21
          149.295000
  0
LINE
  8
0
 10
          -20.065930
 20
          129.575000
 11
          -21.066090
 21
          132.574900
  0
LINE
  8
0
 10
          -20.065930
 20
          129.575000
 11
          -19.065780
 21
          132.574900
  0
LINE
  8
0
 10
          -20.065930
 20
          152.295000
 11
          -20.065930
 21
          129.575000
  0
LINE
  8
0
 10
           -8.520000
 20
          152.295000
 11
          -21.589940
 21
          152.295000
  0
LINE
  8
0
 10
           -8.520000
 20
          129.575000
 11
          -21.589940
 21
          129.575000
  0
ENDBLK
  8
0
  0
BLOCK
  8
0
  2
*d10
 70
    65
 10
             .000000
 20
             .000000
  0
TEXT
  8
0
 10
          -12.537860
 20
           98.024630
 40
            3.000000
  1
21.5
 50
           90.000000
 41
            1.000000
 72
     1
 11
          -12.537810
 21
          104.024600
  0
LINE
  8
0
 10
          -11.787820
 20
          109.695000
 11
          -10.787680
 21
          106.695000
  0
LINE
  8
0
 10
          -11.787820
 20
          109.695000
 11
          -12.787970
 21
          106.695000
  0
LINE
  8
0
 10
          -11.787820
 20
           94.429980
 11
          -12.787970
 21
           97.429930
  0
LINE
  8
0
 10
          -11.787820
 20
           94.429980
 11
          -10.787680
 21
           97.429930
  0
LINE
  8
0
 10
          -11.787820
 20
          109.695000
 11
          -11.787820
 21
           94.429980
  0
LINE
  8
0
 10
           -1.354986
 20
          109.695000
 11
          -13.311820
 21
          109.695000
  0
LINE
  8
0
 10
           28.400010
 20
           94.429980
 11
          -13.311820
 21
           94.429980
  0
ENDBLK
  8
0
  0
BLOCK
  8
0
  2
*d11
 70
    65
 10
             .000000
 20
             .000000
  0
TEXT
  8
0
 10
          -20.815970
 20
          101.647500
 40
            3.000000
  1
66.5
 50
           90.000000
 41
            1.000000
 72
     1
 11
          -20.815920
 21
          107.647500
  0
LINE
  8
0
 10
          -20.065930
 20
          129.575000
 11
          -19.065780
 21
          126.575000
  0
LINE
  8
0
 10
          -20.065930
 20
          129.575000
 11
          -21.066070
 21
          126.575000
  0
LINE
  8
0
 10
          -20.065930
 20
           82.359990
 11
          -21.066090
 21
           85.359920
  0
LINE
  8
0
 10
          -20.065930
 20
           82.359990
 11
          -19.065780
 21
           85.359920
  0
LINE
  8
0
 10
          -20.065930
 20
          129.575000
 11
          -20.065930
 21
           82.359990
  0
LINE
  8
0
 10
          -21.147980
 20
          129.575000
 11
          -18.541930
 21
          129.575000
  0
LINE
  8
0
 10
           -9.940022
 20
           82.359990
 11
          -21.589940
 21
           82.359990
  0
ENDBLK
  8
0
  0
BLOCK
  8
0
  2
*d12
 70
    65
 10
             .000000
 20
             .000000
  0
TEXT
  8
0
 10
          -20.815950
 20
           68.494990
 40
            3.000000
  1
35
 50
           90.000000
 41
            1.000000
 72
     1
 11
          -20.815920
 21
           71.494990
  0
LINE
  8
0
 10
          -20.065930
 20
           82.359990
 11
          -19.065780
 21
           79.360030
  0
LINE
  8
0
 10
          -20.065930
 20
           82.359990
 11
          -21.066070
 21
           79.360030
  0
LINE
  8
0
 10
          -20.065930
 20
           57.509980
 11
          -21.066090
 21
           60.509920
  0
LINE
  8
0
 10
          -20.065930
 20
           57.509980
 11
          -19.065780
 21
           60.509920
  0
LINE
  8
0
 10
          -20.065930
 20
           82.359990
 11
          -20.065930
 21
           57.509980
  0
LINE
  8
0
 10
          -21.147980
 20
           82.359990
 11
          -18.541930
 21
           82.359990
  0
LINE
  8
0
 10
           -9.940022
 20
           57.509980
 11
          -21.589940
 21
           57.509980
  0
ENDBLK
  8
0
  0
BLOCK
  8
0
  2
*d13
 70
    65
 10
             .000000
 20
             .000000
  0
TEXT
  8
0
 10
          -28.996120
 20
          129.361400
 40
            3.000000
  1
60
 50
           90.000000
 41
            1.000000
 72
     1
 11
          -28.996100
 21
          132.361400
  0
LINE
  8
0
 10
          -28.246110
 20
          152.295000
 11
          -27.245960
 21
          149.295000
  0
LINE
  8
0
 10
          -28.246110
 20
          152.295000
 11
          -29.246260
 21
          149.295000
  0
LINE
  8
0
 10
          -28.246110
 20
          109.695000
 11
          -29.246260
 21
          112.694900
  0
LINE
  8
0
 10
          -28.246110
 20
          109.695000
 11
          -27.245970
 21
          112.694900
  0
LINE
  8
0
 10
          -28.246110
 20
          152.295000
 11
          -28.246110
 21
          109.695000
  0
LINE
  8
0
 10
          -21.147980
 20
          152.295000
 11
          -29.328160
 21
          152.295000
  0
LINE
  8
0
 10
          -12.869870
 20
          109.695000
 11
          -17.949130
 21
          109.695000
  0
LINE
  8
0
 10
          -25.149140
 20
          109.695000
 11
          -29.328160
 21
          109.695000
  0
ENDBLK
  8
0
  0
BLOCK
  8
0
  2
*d14
 70
    65
 10
             .000000
 20
             .000000
  0
TEXT
  8
0
 10
          -28.996150
 20
           79.282490
 40
            3.000000
  1
73.5
 50
           90.000000
 41
            1.000000
 72
     1
 11
          -28.996100
 21
           85.282490
  0
LINE
  8
0
 10
          -28.246110
 20
          109.695000
 11
          -27.245960
 21
          106.695000
  0
LINE
  8
0
 10
          -28.246110
 20
          109.695000
 11
          -29.246260
 21
          106.695000
  0
LINE
  8
0
 10
          -28.246110
 20
           57.509980
 11
          -29.246260
 21
           60.509920
  0
LINE
  8
0
 10
          -28.246110
 20
           57.509980
 11
          -27.245970
 21
           60.509920
  0
LINE
  8
0
 10
          -28.246110
 20
          109.695000
 11
          -28.246110
 21
           57.509980
  0
LINE
  8
0
 10
          -29.328160
 20
          109.695000
 11
          -26.722110
 21
          109.695000
  0
LINE
  8
0
 10
          -21.147980
 20
           57.509980
 11
          -29.770110
 21
           57.509980
  0
ENDBLK
  8
0
  0
BLOCK
  8
0
  2
*d15
 70
    65
 10
             .000000
 20
             .000000
  0
TEXT
  8
0
 10
           59.340100
 20
           92.398830
 40
            3.000000
  1
200
 50
           89.899990
 41
            1.000000
 72
     1
 11
           59.347990
 21
           96.898830
  0
LINE
  8
0
 10
           60.095150
 20
           24.849990
 11
           59.095000
 21
           27.849930
  0
LINE
  8
0
 10
           60.095150
 20
           24.849990
 11
           61.095290
 21
           27.849930
  0
LINE
  8
0
 10
           60.095150
 20
          166.850000
 11
           61.095290
 21
          163.850100
  0
LINE
  8
0
 10
           60.095150
 20
          166.850000
 11
           59.095000
 21
          163.850100
  0
LINE
  8
0
 10
           60.095150
 20
           24.849990
 11
           60.095150
 21
          166.850000
  0
LINE
  8
0
 10
           39.050030
 20
           24.849990
 11
           61.619160
 21
           24.849990
  0
LINE
  8
0
 10
           39.050030
 20
          166.850000
 11
           61.619160
 21
          166.850000
  0
ENDBLK
  8
0
  0
BLOCK
  8
0
  2
*d16
 70
    65
 10
             .000000
 20
             .000000
  0
TEXT
  8
0
 10
          -36.634090
 20
          185.646300
 40
            3.000000
  1
13
 50
           89.899990
 41
            1.000000
 72
     1
 11
          -36.628830
 21
          188.646300
  0
LINE
  8
0
 10
          -35.881560
 20
          182.470000
 11
          -36.881700
 21
          185.469900
  0
LINE
  8
0
 10
          -35.881560
 20
          182.470000
 11
          -34.881410
 21
          185.469900
  0
LINE
  8
0
 10
          -35.881560
 20
          191.700000
 11
          -34.881410
 21
          188.700100
  0
LINE
  8
0
 10
          -35.881560
 20
          191.700000
 11
          -36.881700
 21
          188.700100
  0
LINE
  8
0
 10
          -35.881560
 20
          182.470000
 11
          -35.881560
 21
          191.700000
  0
LINE
  8
0
 10
          -37.619420
 20
          182.470000
 11
          -34.357560
 21
          182.470000
  0
LINE
  8
0
 10
          -36.963590
 20
          191.700000
 11
          -34.357560
 21
          191.700000
  0
ENDBLK
  8
0
  0
BLOCK
  8
0
  2
*d17
 70
    65
 10
             .000000
 20
             .000000
  0
TEXT
  8
0
 10
           11.685070
 20
          189.763900
 40
            3.000000
  1
%%C5.5
 50
           90.000000
 41
            1.000000
 72
     1
 11
           11.685120
 21
          195.763900
  0
LINE
  8
0
 10
           12.435100
 20
          184.422500
 11
           12.435100
 21
          199.648800
  0
LINE
  8
0
 10
           12.435100
 20
          184.422500
 11
           11.434950
 21
          187.422400
  0
LINE
  8
0
 10
           12.435100
 20
          184.422500
 11
           13.435240
 21
          187.422400
  0
LINE
  8
0
 10
           12.435100
 20
          180.517500
 11
           13.435240
 21
          177.517500
  0
LINE
  8
0
 10
           12.435100
 20
          180.517500
 11
           11.434950
 21
          177.517500
  0
LINE
  8
0
 10
           12.435100
 20
          192.328200
 11
           12.435100
 21
          184.422500
  0
LINE
  8
0
 10
           12.435100
 20
          172.611800
 11
           12.435100
 21
          180.517500
  0
LINE
  8
0
 10
           12.435100
 20
          184.422500
 11
           12.435100
 21
          180.517500
  0
LINE
  8
0
 10
            2.129999
 20
          184.422500
 11
           13.959100
 21
          184.422500
  0
LINE
  8
0
 10
            2.129999
 20
          180.517500
 11
           13.959100
 21
          180.517500
  0
ENDBLK
  8
0
  0
BLOCK
  8
0
  2
*d18
 70
    65
 10
             .000000
 20
             .000000
  0
TEXT
  8
0
 10
           20.216350
 20
           57.279190
 40
            3.000000
  1
19
 50
          359.899900
 41
            1.000000
 72
     1
 11
           23.216350
 21
           57.273850
  0
LINE
  8
0
 10
           14.910020
 20
           56.526630
 11
           17.909960
 21
           57.526760
  0
LINE
  8
0
 10
           14.910020
 20
           56.526630
 11
           17.909960
 21
           55.526470
  0
LINE
  8
0
 10
           28.400010
 20
           56.526630
 11
           25.400070
 21
           55.526470
  0
LINE
  8
0
 10
           28.400010
 20
           56.526630
 11
           25.400070
 21
           57.526760
  0
LINE
  8
0
 10
           14.910020
 20
           56.526630
 11
           28.400010
 21
           56.526630
  0
LINE
  8
0
 10
           14.910020
 20
           42.367690
 11
           14.910020
 21
           58.050610
  0
LINE
  8
0
 10
           28.400010
 20
           83.688750
 11
           28.400010
 21
           55.002620
  0
ENDBLK
  8
0
  0
BLOCK
  8
0
  2
*d19
 70
    65
 10
             .000000
 20
             .000000
  0
TEXT
  8
0
 10
            6.456291
 20
           41.737830
 40
            3.000000
  1
8
 50
           90.000000
 41
            1.000000
 72
     1
 11
            6.456304
 21
           43.237830
  0
LINE
  8
0
 10
            7.206289
 20
           44.374980
 11
            6.206143
 21
           47.374920
  0
LINE
  8
0
 10
            7.206289
 20
           44.374980
 11
            8.206435
 21
           47.374920
  0
LINE
  8
0
 10
            7.206289
 20
           38.694980
 11
            8.206436
 21
           35.695040
  0
LINE
  8
0
 10
            7.206289
 20
           38.694980
 11
            6.206143
 21
           35.695040
  0
LINE
  8
0
 10
            7.206289
 20
           52.280650
 11
            7.206289
 21
           44.374980
  0
LINE
  8
0
 10
            7.206289
 20
           30.789310
 11
            7.206289
 21
           38.694980
  0
LINE
  8
0
 10
            7.206289
 20
           44.374980
 11
            7.206289
 21
           38.694980
  0
LINE
  8
0
 10
           19.632600
 20
           44.374980
 11
            5.682289
 21
           44.374980
  0
LINE
  8
0
 10
           11.360020
 20
           38.694980
 11
            5.682289
 21
           38.694980
  0
ENDBLK
  8
0
  0
BLOCK
  8
0
  2
*d20
 70
    65
 10
             .000000
 20
             .000000
  0
TEXT
  8
0
 10
           19.971120
 20
           16.271630
 40
            3.000000
  1
6.5(2x)
 50
          359.899900
 41
            1.000000
 72
     1
 11
           30.471110
 21
           16.252930
  0
LINE
  8
0
 10
           17.217510
 20
           15.506240
 11
           40.174770
 21
           15.506240
  0
LINE
  8
0
 10
           12.602520
 20
           15.506240
 11
            9.602577
 21
           14.506100
  0
LINE
  8
0
 10
           12.602520
 20
           15.506240
 11
            9.602577
 21
           16.506380
  0
LINE
  8
0
 10
           17.217510
 20
           15.506240
 11
           20.217450
 21
           16.506380
  0
LINE
  8
0
 10
           17.217510
 20
           15.506240
 11
           20.217450
 21
           14.506100
  0
LINE
  8
0
 10
            4.696846
 20
           15.506240
 11
           12.602520
 21
           15.506240
  0
LINE
  8
0
 10
           25.123180
 20
           15.506240
 11
           17.217510
 21
           15.506240
  0
LINE
  8
0
 10
           12.602520
 20
           15.506240
 11
           17.217510
 21
           15.506240
  0
LINE
  8
0
 10
           12.602520
 20
           38.694980
 11
           12.602520
 21
           13.982240
  0
LINE
  8
0
 10
           17.217510
 20
           38.694980
 11
           17.217510
 21
           13.982240
  0
ENDBLK
  8
0
  0
BLOCK
  8
0
  2
*d21
 70
    65
 10
             .000000
 20
             .000000
  0
TEXT
  8
0
 10
          -45.232420
 20
           92.969990
 40
            3.000000
  1
270
 50
           90.000000
 41
            1.000000
 72
     1
 11
          -45.232380
 21
           97.469990
  0
LINE
  8
0
 10
          -44.482390
 20
          191.700000
 11
          -43.482250
 21
          188.700100
  0
LINE
  8
0
 10
          -44.482390
 20
          191.700000
 11
          -45.482540
 21
          188.700100
  0
LINE
  8
0
 10
          -44.482390
 20
             .000000
 11
          -45.482540
 21
            2.999943
  0
LINE
  8
0
 10
          -44.482390
 20
             .000000
 11
          -43.482250
 21
            2.999943
  0
LINE
  8
0
 10
          -44.482390
 20
          191.700000
 11
          -44.482390
 21
             .000000
  0
LINE
  8
0
 10
             .000000
 20
          191.700000
 11
          -46.006390
 21
          191.700000
  0
LINE
  8
0
 10
             .000000
 20
             .000000
 11
          -46.006390
 21
             .000000
  0
ENDBLK
  8
0
  0
BLOCK
  8
0
  2
*d22
 70
    65
 10
             .000000
 20
             .000000
  0
TEXT
  8
0
 10
          -36.636610
 20
           92.971300
 40
            3.000000
  1
244
 50
           89.899990
 41
            1.000000
 72
     1
 11
          -36.628720
 21
           97.471290
  0
LINE
  8
0
 10
          -35.881560
 20
            9.229989
 11
          -36.881700
 21
           12.229930
  0
LINE
  8
0
 10
          -35.881560
 20
            9.229989
 11
          -34.881410
 21
           12.229930
  0
LINE
  8
0
 10
          -35.881560
 20
          182.470000
 11
          -34.881410
 21
          179.470100
  0
LINE
  8
0
 10
          -35.881560
 20
          182.470000
 11
          -36.881700
 21
          179.470100
  0
LINE
  8
0
 10
          -35.881560
 20
            9.229989
 11
          -35.881560
 21
          182.470000
  0
LINE
  8
0
 10
           -1.748837
 20
            9.229989
 11
          -37.405560
 21
            9.229989
  0
LINE
  8
0
 10
           -3.250880
 20
          182.470000
 11
          -37.405560
 21
          182.470000
  0
ENDBLK
  8
0
  0
BLOCK
  8
0
  2
*d23
 70
    65
 10
             .000000
 20
             .000000
  0
TEXT
  8
0
 10
           45.397520
 20
           75.612360
 40
            3.000000
  1
92
 50
           89.899990
 41
            1.000000
 72
     1
 11
           45.402780
 21
           78.612360
  0
LINE
  8
0
 10
           46.150040
 20
           44.374980
 11
           45.149890
 21
           47.374920
  0
LINE
  8
0
 10
           46.150040
 20
           44.374980
 11
           47.150180
 21
           47.374920
  0
LINE
  8
0
 10
           46.150040
 20
          109.695000
 11
           47.150180
 21
          106.695000
  0
LINE
  8
0
 10
           46.150040
 20
          109.695000
 11
           45.149890
 21
          106.695000
  0
LINE
  8
0
 10
           46.150040
 20
           44.374980
 11
           46.150040
 21
          109.695000
  0
LINE
  8
0
 10
           34.435010
 20
           44.374980
 11
           47.674040
 21
           44.374980
  0
LINE
  8
0
 10
           39.050030
 20
          109.695000
 11
           47.674040
 21
          109.695000
  0
ENDBLK
  8
0
  0
BLOCK
  8
0
  2
*d24
 70
    65
 10
             .000000
 20
             .000000
  0
TEXT
  8
0
 10
           45.389940
 20
          141.266000
 40
            3.000000
  1
115.5
 50
           89.899990
 41
            1.000000
 72
     1
 11
           45.403100
 21
          148.766000
  0
LINE
  8
0
 10
           46.150040
 20
          109.695000
 11
           45.149890
 21
          112.694900
  0
LINE
  8
0
 10
           46.150040
 20
          109.695000
 11
           47.150180
 21
          112.694900
  0
LINE
  8
0
 10
           46.150040
 20
          191.700000
 11
           47.150180
 21
          188.700100
  0
LINE
  8
0
 10
           46.150040
 20
          191.700000
 11
           45.149890
 21
          188.700100
  0
LINE
  8
0
 10
           46.150040
 20
          109.695000
 11
           46.150040
 21
          191.700000
  0
LINE
  8
0
 10
           51.725920
 20
          109.695000
 11
           44.626040
 21
          109.695000
  0
LINE
  8
0
 10
           49.473910
 20
          191.700000
 11
           14.515710
 21
          191.700000
  0
ENDBLK
  8
0
  0
BLOCK
  8
0
  2
*d25
 70
    65
 10
             .000000
 20
             .000000
  0
TEXT
  8
0
 10
           52.492460
 20
          133.953800
 40
            3.000000
  1
80.5
 50
           89.899990
 41
            1.000000
 72
     1
 11
           52.502980
 21
          139.953800
  0
LINE
  8
0
 10
           53.250030
 20
          109.695000
 11
           52.249890
 21
          112.694900
  0
LINE
  8
0
 10
           53.250030
 20
          109.695000
 11
           54.250180
 21
          112.694900
  0
LINE
  8
0
 10
           53.250030
 20
          166.850000
 11
           54.250180
 21
          163.850100
  0
LINE
  8
0
 10
           53.250030
 20
          166.850000
 11
           52.249890
 21
          163.850100
  0
LINE
  8
0
 10
           53.250030
 20
          109.695000
 11
           53.250030
 21
          166.850000
  0
LINE
  8
0
 10
           39.050030
 20
          109.695000
 11
           54.774030
 21
          109.695000
  0
LINE
  8
0
 10
           39.050030
 20
          166.850000
 11
           54.774030
 21
          166.850000
  0
ENDBLK
  8
0
  0
BLOCK
  8
0
  2
*d26
 70
    65
 10
             .000000
 20
             .000000
  0
TEXT
  8
0
 10
           90.406650
 20
          162.381900
 40
            3.000000
  1
14
 50
          359.899900
 41
            1.000000
 72
     1
 11
           93.406650
 21
          162.376600
  0
LINE
  8
0
 10
           96.815320
 20
          161.629300
 11
           99.815260
 21
          162.629500
  0
LINE
  8
0
 10
           96.815320
 20
          161.629300
 11
           99.815260
 21
          160.629200
  0
LINE
  8
0
 10
          104.721000
 20
          161.629300
 11
           96.815320
 21
          161.629300
  0
LINE
  8
0
 10
           86.875320
 20
          161.629300
 11
           96.815320
 21
          161.629300
  0
LINE
  8
0
 10
           86.875320
 20
          152.295000
 11
           86.875320
 21
          163.153400
  0
LINE
  8
0
 10
           96.815320
 20
          150.875000
 11
           96.815320
 21
          163.153400
  0
ENDBLK
  8
0
  0
BLOCK
  8
0
  2
*d27
 70
    65
 10
             .000000
 20
             .000000
  0
TEXT
  8
0
 10
           76.553790
 20
          162.379300
 40
            3.000000
  1
5
 50
             .000000
 41
            1.000000
 72
     1
 11
           78.053790
 21
          162.379300
  0
LINE
  8
0
 10
           83.325320
 20
          161.629300
 11
           73.988780
 21
          161.629300
  0
CIRCLE
  8
0
 10
           86.875320
 20
          161.629300
 40
             .761999
  0
LINE
  8
0
 10
           83.325320
 20
          161.629300
 11
           80.325380
 21
          160.629200
  0
LINE
  8
0
 10
           83.325320
 20
          161.629300
 11
           80.325380
 21
          162.629500
  0
LINE
  8
0
 10
           75.419650
 20
          161.629300
 11
           83.325320
 21
          161.629300
  0
LINE
  8
0
 10
           86.875320
 20
          161.629300
 11
           83.325320
 21
          161.629300
  0
LINE
  8
0
 10
           86.875320
 20
          162.711400
 11
           86.875320
 21
          160.105300
  0
LINE
  8
0
 10
           83.325320
 20
          227.200000
 11
           83.325320
 21
          160.105300
  0
ENDBLK
  8
0
  0
BLOCK
  8
0
  2
*d28
 70
    65
 10
             .000000
 20
             .000000
  0
TEXT
  8
0
 10
           91.595440
 20
           92.810120
 40
            3.000000
  1
8
 50
             .000000
 41
            1.000000
 72
     1
 11
           93.095440
 21
           92.810120
  0
LINE
  8
0
 10
           94.685320
 20
           92.060120
 11
           97.685270
 21
           93.060260
  0
LINE
  8
0
 10
           94.685320
 20
           92.060120
 11
           97.685270
 21
           91.059970
  0
LINE
  8
0
 10
           89.005330
 20
           92.060120
 11
           86.005370
 21
           91.059970
  0
LINE
  8
0
 10
           89.005330
 20
           92.060120
 11
           86.005370
 21
           93.060260
  0
LINE
  8
0
 10
          102.591000
 20
           92.060120
 11
           94.685320
 21
           92.060120
  0
LINE
  8
0
 10
           81.099640
 20
           92.060120
 11
           89.005330
 21
           92.060120
  0
LINE
  8
0
 10
           94.685320
 20
           92.060120
 11
           89.005330
 21
           92.060120
  0
LINE
  8
0
 10
           94.685320
 20
           82.359990
 11
           94.685320
 21
           93.584120
  0
LINE
  8
0
 10
           89.005330
 20
           82.359990
 11
           89.005330
 21
           93.584120
  0
ENDBLK
  8
0
  0
BLOCK
  8
0
  2
*d29
 70
    65
 10
             .000000
 20
             .000000
  0
TEXT
  8
0
 10
           90.406650
 20
           -6.347436
 40
            3.000000
  1
24
 50
          359.899900
 41
            1.000000
 72
     1
 11
           93.406650
 21
           -6.352778
  0
LINE
  8
0
 10
           83.325320
 20
           -7.099999
 11
           86.325270
 21
           -6.099854
  0
LINE
  8
0
 10
           83.325320
 20
           -7.099999
 11
           86.325270
 21
           -8.100146
  0
LINE
  8
0
 10
          100.365300
 20
           -7.099999
 11
           97.365370
 21
           -8.100146
  0
LINE
  8
0
 10
          100.365300
 20
           -7.099999
 11
           97.365370
 21
           -6.099854
  0
LINE
  8
0
 10
           83.325320
 20
           -7.099999
 11
          100.365300
 21
           -7.099999
  0
LINE
  8
0
 10
           83.325320
 20
             .000000
 11
           83.325320
 21
           -8.624000
  0
LINE
  8
0
 10
          100.365300
 20
             .000000
 11
          100.365300
 21
           -8.624000
  0
ENDBLK
  8
0
  0
BLOCK
  8
0
  2
*d30
 70
    65
 10
             .000000
 20
             .000000
  0
TEXT
  8
0
 10
           93.117190
 20
          101.795500
 40
            3.500000
  1
3
 50
          359.899900
 41
            1.000000
 72
     1
 11
           94.867190
 21
          101.792300
  0
LINE
  8
0
 10
           89.005330
 20
          100.920500
 11
           96.108140
 21
          100.920500
  0
LINE
  8
0
 10
           86.875320
 20
          100.920500
 11
           83.875380
 21
           99.920300
  0
LINE
  8
0
 10
           86.875320
 20
          100.920500
 11
           83.875380
 21
          101.920600
  0
LINE
  8
0
 10
           89.005330
 20
          100.920500
 11
           92.005260
 21
          101.920600
  0
LINE
  8
0
 10
           89.005330
 20
          100.920500
 11
           92.005260
 21
           99.920300
  0
LINE
  8
0
 10
           78.969650
 20
          100.920500
 11
           86.875320
 21
          100.920500
  0
LINE
  8
0
 10
           96.911000
 20
          100.920500
 11
           89.005330
 21
          100.920500
  0
LINE
  8
0
 10
           86.875320
 20
          100.920500
 11
           89.005330
 21
          100.920500
  0
LINE
  8
0
 10
           86.875320
 20
          129.575000
 11
           86.875320
 21
           99.396450
  0
LINE
  8
0
 10
           89.005330
 20
           82.359990
 11
           89.005330
 21
          102.444500
  0
ENDBLK
  8
0
  0
BLOCK
  8
0
  2
*d31
 70
    65
 10
             .000000
 20
             .000000
  0
TEXT
  8
0
 10
           48.950050
 20
          -22.593470
 40
            3.000000
  1
18
 50
           90.000000
 41
            1.000000
 72
     1
 11
           48.950070
 21
          -19.593470
  0
LINE
  8
0
 10
           49.700060
 20
          -15.288860
 11
           50.700200
 21
          -18.288800
  0
LINE
  8
0
 10
           49.700060
 20
          -15.288860
 11
           48.699910
 21
          -18.288800
  0
LINE
  8
0
 10
           49.700060
 20
          -28.068860
 11
           48.699910
 21
          -25.068910
  0
LINE
  8
0
 10
           49.700060
 20
          -28.068860
 11
           50.700200
 21
          -25.068910
  0
LINE
  8
0
 10
           49.700060
 20
          -15.288860
 11
           49.700060
 21
          -28.068860
  0
LINE
  8
0
 10
           34.435010
 20
          -15.288860
 11
           51.224060
 21
          -15.288860
  0
LINE
  8
0
 10
           34.435010
 20
          -28.068860
 11
           51.224060
 21
          -28.068860
  0
ENDBLK
  8
0
  0
BLOCK
  8
0
  2
*d32
 70
    65
 10
             .000000
 20
             .000000
  0
TEXT
  8
0
 10
          -16.370000
 20
          -21.278620
 40
            3.000000
  1
2
 50
           90.000000
 41
            1.000000
 72
     1
 11
          -16.369990
 21
          -19.778620
  0
LINE
  8
0
 10
          -15.620000
 20
          -16.708860
 11
          -15.620000
 21
          -23.843610
  0
LINE
  8
0
 10
          -15.620000
 20
          -15.288860
 11
          -16.620130
 21
          -12.288920
  0
LINE
  8
0
 10
          -15.620000
 20
          -15.288860
 11
          -14.619850
 21
          -12.288920
  0
LINE
  8
0
 10
          -15.620000
 20
          -16.708860
 11
          -14.619850
 21
          -19.708800
  0
LINE
  8
0
 10
          -15.620000
 20
          -16.708860
 11
          -16.620130
 21
          -19.708800
  0
LINE
  8
0
 10
          -15.620000
 20
           -7.383189
 11
          -15.620000
 21
          -15.288860
  0
LINE
  8
0
 10
          -15.620000
 20
          -24.614530
 11
          -15.620000
 21
          -16.708860
  0
LINE
  8
0
 10
          -15.620000
 20
          -15.288860
 11
          -15.620000
 21
          -16.708860
  0
LINE
  8
0
 10
            2.129999
 20
          -15.288860
 11
          -17.144000
 21
          -15.288860
  0
LINE
  8
0
 10
           -8.520000
 20
          -16.708860
 11
          -17.144000
 21
          -16.708860
  0
ENDBLK
  8
0
  0
ENDSEC
  0
SECTION
  2
ENTITIES
  0
TEXT
  8
999
 10
             .000000
 20
             .000000
 40
            1.000000
  1
AZ  , EINBAU, Z 1828 M04 01 4A SEB
 50
             .000000
 41
            1.000000
  0
LINE
  8
PV
 10
            2.129999
 20
             .000000
 11
             .000000
 21
             .000000
  0
LINE
  8
PV
 10
             .000000
 20
          191.700000
 11
             .000000
 21
             .000000
  0
LINE
  8
PV
 10
           39.050030
 20
          166.850000
 11
           39.050030
 21
           24.849990
  0
LINE
  8
PV
 10
            2.129999
 20
           24.849990
 11
           39.050030
 21
           24.849990
  0
LINE
  8
PV
 10
           -1.354986
 20
          109.695000
 11
           39.050030
 21
          109.695000
  6
CENTER
  0
LINE
  8
PV
 10
           25.206970
 20
          112.778500
 11
           31.593060
 21
          113.001500
  0
LINE
  8
PV
 10
           25.429950
 20
          106.392400
 11
           25.206970
 21
          112.778500
  0
LINE
  8
PV
 10
           31.816040
 20
          106.615300
 11
           31.593030
 21
          113.001400
  0
LINE
  8
PV
 10
           31.816070
 20
          106.615400
 11
           25.429930
 21
          106.392400
  0
LINE
  8
PV
 10
           24.850020
 20
           39.494540
 11
           24.850020
 21
           30.174990
  0
LINE
  8
PV
 10
           31.950010
 20
           39.494540
 11
           31.950010
 21
           30.174990
  0
LINE
  8
PV
 10
             .000000
 20
          129.575000
 11
           -8.520000
 21
          129.575000
  0
LINE
  8
PV
 10
             .000000
 20
           57.509980
 11
           -9.940022
 21
           57.509980
  6
CENTER
  0
LINE
  8
PV
 10
           -9.940022
 20
           82.359990
 11
             .000000
 21
           82.359990
  6
CENTER
  0
LINE
  8
PV
 10
           -8.520000
 20
          152.295000
 11
           -8.520000
 21
          129.575000
  0
LINE
  8
PV
 10
           -8.520000
 20
          152.295000
 11
             .000000
 21
          152.295000
  0
LINE
  8
PV
 10
           -8.520000
 20
          150.875000
 11
             .000000
 21
          150.875000
  0
LINE
  8
PV
 10
             .000000
 20
          130.995000
 11
           -8.520000
 21
          130.995000
  0
LINE
  8
PV
 10
           -1.748837
 20
            9.229989
 11
            3.342988
 21
            9.229989
  6
CENTER
  0
LINE
  8
PV
 10
           12.070000
 20
          154.070000
 11
           12.070000
 21
          127.800000
  0
LINE
  8
PV
 10
            2.129999
 20
          154.070000
 11
           12.070000
 21
          154.070000
  0
LINE
  8
PV
 10
           12.070000
 20
          127.800000
 11
            2.129999
 21
          127.800000
  0
LINE
  8
PV
 10
           -9.940022
 20
           82.359990
 11
           -9.940022
 21
           57.509980
  6
CENTER
  0
LINE
  8
PV
 10
           19.632600
 20
           44.374980
 11
           34.435010
 21
           44.374980
  6
CENTER
  0
LINE
  8
PV
 10
           22.801070
 20
           30.174990
 11
           33.850800
 21
           30.174990
  6
CENTER
  0
LINE
  8
PV
 10
           23.075010
 20
           94.429980
 11
           33.725020
 21
           94.429980
  6
CENTER
  0
LINE
  8
PV
 10
           14.910020
 20
          113.784800
 11
           14.910020
 21
          105.753800
  6
CENTER
  0
LINE
  8
PV
 10
             .000000
 20
          191.700000
 11
            2.129999
 21
          191.700000
  0
LINE
  8
PV
 10
           -3.250880
 20
          182.470000
 11
            4.828853
 21
          182.470000
  6
CENTER
  0
LINE
  8
PV
 10
            2.129999
 20
          191.700000
 11
            2.129999
 21
          175.683600
  0
LINE
  8
PV
 10
             .000000
 20
          191.700000
 11
             .000000
 21
          175.049200
  0
LINE
  8
PV
 10
            2.129999
 20
          191.700000
 11
             .000000
 21
          191.700000
  0
LINE
  8
PV
 10
           -1.748837
 20
          182.470000
 11
            3.342988
 21
          182.470000
  6
CENTER
  0
LINE
  8
PV
 10
             .000000
 20
          178.920000
 11
             .212991
 21
          178.920000
  0
LINE
  8
PV
 10
             .000000
 20
          186.020000
 11
             .213001
 21
          186.020000
  0
LINE
  8
PV
 10
            1.810502
 20
          184.422500
 11
            2.129999
 21
          184.422500
  0
LINE
  8
PV
 10
            1.810502
 20
          180.517500
 11
            2.129999
 21
          180.517500
  0
LINE
  8
PV
 10
             .213001
 20
          186.020000
 11
             .213001
 21
          178.920000
  0
LINE
  8
PV
 10
             .213006
 20
          186.020000
 11
            1.810506
 21
          184.422500
  0
LINE
  8
PV
 10
             .212989
 20
          178.920000
 11
            1.810489
 21
          180.517500
  0
LINE
  8
PV
 10
            1.810502
 20
          184.422500
 11
            1.810502
 21
          180.517500
  0
LINE
  8
PV
 10
            2.129999
 20
          191.700000
 11
            2.129999
 21
             .000000
  0
LINE
  8
PV
 10
           28.400010
 20
          120.599100
 11
           28.400010
 21
           87.617490
  6
CENTER
  0
LINE
  8
PV
 10
           28.400010
 20
           84.119770
 11
           28.400010
 21
           21.533130
  6
CENTER
  0
LINE
  8
PV
 10
           11.360020
 20
           38.694980
 11
           18.460020
 21
           38.694980
  6
CENTER
  0
LINE
  8
PV
 10
           14.910020
 20
           42.244980
 11
           14.910020
 21
           35.144990
  6
CENTER
  0
LINE
  8
PV
 10
           -5.936518
 20
          198.800000
 11
             .744989
 21
          183.784900
  0
LINE
  8
PV
 10
           28.400010
 20
          173.009600
 11
           28.400010
 21
          128.742900
  6
CENTER
  0
LINE
  8
PV
 10
            2.129999
 20
          166.850000
 11
           39.050030
 21
          166.850000
  0
LINE
  8
PV
 10
           54.329760
 20
          166.850000
 11
           61.177190
 21
          166.850000
  0
LINE
  8
PV
 10
          -26.010410
 20
          109.695000
 11
          -29.537000
 21
          109.695000
  0
LINE
  8
PV
 10
            2.129999
 20
          165.430000
 11
           39.050030
 21
          165.430000
  6
DASHED
  0
LINE
  8
PV
 10
            -.763047
 20
          150.875000
 11
            -.763047
 21
          130.995000
  0
LINE
  8
PV
 10
            6.982947
 20
          191.700000
 11
            2.129999
 21
          191.700000
  0
LINE
  8
PV
 10
          -50.393840
 20
          198.800000
 11
           -5.936518
 21
          198.800000
  0
LINE
  8
PV
 10
           14.333060
 20
          108.526800
 11
           -8.943356
 21
           54.744110
  0
LINE
  8
PV
 10
           14.241650
 20
           37.779800
 11
          -17.001970
 21
           36.123780
  0
LINE
  8
PV
 10
          -11.212480
 20
           49.501040
 11
          -17.001970
 21
           36.123790
  0
CIRCLE
  8
PV
 10
           28.400010
 20
          109.695000
 40
            6.035000
  0
CIRCLE
  8
PV
 10
           28.400010
 20
           94.429980
 40
            3.372499
  0
ARC
  8
PV
 10
           28.400010
 20
           44.374980
 40
            6.035005
 50
          306.031900
 51
          540.000000
  0
ARC
  8
PV
 10
           28.400010
 20
           30.174990
 40
            3.549988
 50
          180.000300
 51
          360.000000
  0
ARC
  8
PV
 10
           28.400010
 20
           44.374980
 40
            6.034988
 50
          180.000000
 51
          233.968200
  0
CIRCLE
  8
PV
 10
           14.910020
 20
          109.695000
 40
            2.307500
  0
CIRCLE
  8
PV
 10
           14.910020
 20
           38.694980
 40
            2.307500
  0
CIRCLE
  8
PV
 10
             .744992
 20
          183.784900
 40
             .141999
  0
POLYLINE
  8
PV
 66
     1
 70
     0
 40
             .000000
 41
             .000000
  6
DASHED
  0
VERTEX
  8
PV
 10
             .000000
 20
          175.049200
 40
             .000000
 41
             .000000
 42
             .000000
 70
     0
 50
             .000000
  6
DASHED
  0
VERTEX
  8
PV
 10
             .038119
 20
          175.041000
 40
             .000000
 41
             .000000
 42
             .000000
 70
     0
 50
             .000000
  6
DASHED
  0
VERTEX
  8
PV
 10
             .112853
 20
          175.035500
 40
             .000000
 41
             .000000
 42
             .000000
 70
     0
 50
             .000000
  6
DASHED
  0
VERTEX
  8
PV
 10
             .149687
 20
          175.036600
 40
             .000000
 41
             .000000
 42
             .000000
 70
     0
 50
             .000000
  6
DASHED
  0
VERTEX
  8
PV
 10
             .187339
 20
          175.031800
 40
             .000000
 41
             .000000
 42
             .000000
 70
     0
 50
             .000000
  6
DASHED
  0
VERTEX
  8
PV
 10
             .371087
 20
          175.040400
 40
             .000000
 41
             .000000
 42
             .000000
 70
     0
 50
             .000000
  6
DASHED
  0
VERTEX
  8
PV
 10
             .516756
 20
          175.057100
 40
             .000000
 41
             .000000
 42
             .000000
 70
     0
 50
             .000000
  6
DASHED
  0
VERTEX
  8
PV
 10
             .660985
 20
          175.084100
 40
             .000000
 41
             .000000
 42
             .000000
 70
     0
 50
             .000000
  6
DASHED
  0
VERTEX
  8
PV
 10
             .732494
 20
          175.102000
 40
             .000000
 41
             .000000
 42
             .000000
 70
     0
 50
             .000000
  6
DASHED
  0
VERTEX
  8
PV
 10
             .907542
 20
          175.174100
 40
             .000000
 41
             .000000
 42
             .000000
 70
     0
 50
             .000000
  6
DASHED
  0
VERTEX
  8
PV
 10
            1.012612
 20
          175.256800
 40
             .000000
 41
             .000000
 42
             .000000
 70
     0
 50
             .000000
  6
DASHED
  0
VERTEX
  8
PV
 10
            1.108818
 20
          175.350100
 40
             .000000
 41
             .000000
 42
             .000000
 70
     0
 50
             .000000
  6
DASHED
  0
VERTEX
  8
PV
 10
            1.224054
 20
          175.455300
 40
             .000000
 41
             .000000
 42
             .000000
 70
     0
 50
             .000000
  6
DASHED
  0
VERTEX
  8
PV
 10
            1.332690
 20
          175.533800
 40
             .000000
 41
             .000000
 42
             .000000
 70
     0
 50
             .000000
  6
DASHED
  0
VERTEX
  8
PV
 10
            1.361622
 20
          175.555500
 40
             .000000
 41
             .000000
 42
             .000000
 70
     0
 50
             .000000
  6
DASHED
  0
VERTEX
  8
PV
 10
            1.483118
 20
          175.611800
 40
             .000000
 41
             .000000
 42
             .000000
 70
     0
 50
             .000000
  6
DASHED
  0
VERTEX
  8
PV
 10
            1.607974
 20
          175.650200
 40
             .000000
 41
             .000000
 42
             .000000
 70
     0
 50
             .000000
  6
DASHED
  0
VERTEX
  8
PV
 10
            1.735403
 20
          175.675000
 40
             .000000
 41
             .000000
 42
             .000000
 70
     0
 50
             .000000
  6
DASHED
  0
VERTEX
  8
PV
 10
            1.897742
 20
          175.689700
 40
             .000000
 41
             .000000
 42
             .000000
 70
     0
 50
             .000000
  6
DASHED
  0
VERTEX
  8
PV
 10
            2.029374
 20
          175.692000
 40
             .000000
 41
             .000000
 42
             .000000
 70
     0
 50
             .000000
  6
DASHED
  0
VERTEX
  8
PV
 10
            2.129999
 20
          175.683600
 40
             .000000
 41
             .000000
 42
             .000000
 70
     0
 50
             .000000
  6
DASHED
  0
SEQEND
  8
PV
  6
DASHED
  0
TEXT
  8
PV
 10
          -30.678730
 20
           31.307920
 40
            3.000000
  1
ab 40 Dorn
 50
             .000000
 41
             .714286
  0
TEXT
  8
PV
 10
          -47.673740
 20
          200.848200
 40
            3.000000
  1
Senkung DIN 74-Af5
 50
             .000000
 41
             .714286
  0
TEXT
  8
PV
 10
            6.624887
 20
          -10.282470
 40
            3.000000
  1
(Dornmaá)
 50
             .000000
 41
             .714286
  0
TEXT
  8
PV
 10
          -36.927490
 20
          -72.392300
 40
            3.000000
  1
Rohrrahmenschloá "BKS 1828"
 50
             .000000
 41
             .714286
  0
TEXT
  8
PV
 10
          -74.229020
 20
          -67.047700
 40
            3.000000
  1
Z 1828 M04 01 4A
 50
           90.000000
 41
             .714286
  0
TEXT
  8
PV
 10
          -66.454840
 20
          -72.603910
 40
            2.000000
  1
12.5.93 Brammertz
 50
             .000000
 41
             .636364
  0
POLYLINE
  8
PV
 66
     1
 70
     0
 40
             .000000
 41
             .000000
  0
VERTEX
  8
PV
 10
           27.357050
 20
          125.776200
 40
             .000000
 41
             .000000
 42
             .000000
 70
     0
 50
             .000000
  0
VERTEX
  8
PV
 10
           25.528470
 20
          125.776200
 40
             .000000
 41
             .000000
 42
             .000000
 70
     0
 50
             .000000
  0
VERTEX
  8
PV
 10
           25.528470
 20
          123.825800
 40
             .000000
 41
             .000000
 42
             .000000
 70
     0
 50
             .000000
  0
VERTEX
  8
PV
 10
           27.357050
 20
          123.825800
 40
             .000000
 41
             .000000
 42
             .000000
 70
     0
 50
             .000000
  0
VERTEX
  8
PV
 10
           27.357050
 20
          125.776200
 40
             .000000
 41
             .000000
 42
             .000000
 70
     0
 50
             .000000
  0
SEQEND
  8
PV
  0
INSERT
  8
PV
  2
*d1
 10
             .000000
 20
             .000000
 41
            1.000000
 42
            1.000000
 43
            1.000000
 50
             .000000
  0
INSERT
  8
PV
  2
*d1
 10
             .000000
 20
             .000000
 41
            1.000000
 42
            1.000000
 43
            1.000000
 50
             .000000
  0
INSERT
  8
PV
  2
*d2
 10
             .000000
 20
             .000000
 41
            1.000000
 42
            1.000000
 43
            1.000000
 50
             .000000
  0
INSERT
  8
PV
  2
*d2
 10
             .000000
 20
             .000000
 41
            1.000000
 42
            1.000000
 43
            1.000000
 50
             .000000
  0
INSERT
  8
PV
  2
*d3
 10
             .000000
 20
             .000000
 41
            1.000000
 42
            1.000000
 43
            1.000000
 50
             .000000
  0
INSERT
  8
PV
  2
*d3
 10
             .000000
 20
             .000000
 41
            1.000000
 42
            1.000000
 43
            1.000000
 50
             .000000
  0
INSERT
  8
PV
  2
*d4
 10
             .000000
 20
             .000000
 41
            1.000000
 42
            1.000000
 43
            1.000000
 50
             .000000
  0
INSERT
  8
PV
  2
*d4
 10
             .000000
 20
             .000000
 41
            1.000000
 42
            1.000000
 43
            1.000000
 50
             .000000
  0
INSERT
  8
PV
  2
*d5
 10
             .000000
 20
             .000000
 41
            1.000000
 42
            1.000000
 43
            1.000000
 50
             .000000
  0
INSERT
  8
PV
  2
*d5
 10
             .000000
 20
             .000000
 41
            1.000000
 42
            1.000000
 43
            1.000000
 50
             .000000
  0
INSERT
  8
PV
  2
*d6
 10
             .000000
 20
             .000000
 41
            1.000000
 42
            1.000000
 43
            1.000000
 50
             .000000
  0
INSERT
  8
PV
  2
*d6
 10
             .000000
 20
             .000000
 41
            1.000000
 42
            1.000000
 43
            1.000000
 50
             .000000
  0
INSERT
  8
PV
  2
*d7
 10
             .000000
 20
             .000000
 41
            1.000000
 42
            1.000000
 43
            1.000000
 50
             .000000
  0
INSERT
  8
PV
  2
*d7
 10
             .000000
 20
             .000000
 41
            1.000000
 42
            1.000000
 43
            1.000000
 50
             .000000
  0
INSERT
  8
PV
  2
*d8
 10
             .000000
 20
             .000000
 41
            1.000000
 42
            1.000000
 43
            1.000000
 50
             .000000
  0
INSERT
  8
PV
  2
*d8
 10
             .000000
 20
             .000000
 41
            1.000000
 42
            1.000000
 43
            1.000000
 50
             .000000
  0
INSERT
  8
PV
  2
*d9
 10
             .000000
 20
             .000000
 41
            1.000000
 42
            1.000000
 43
            1.000000
 50
             .000000
  0
INSERT
  8
PV
  2
*d9
 10
             .000000
 20
             .000000
 41
            1.000000
 42
            1.000000
 43
            1.000000
 50
             .000000
  0
INSERT
  8
PV
  2
*d10
 10
             .000000
 20
             .000000
 41
            1.000000
 42
            1.000000
 43
            1.000000
 50
             .000000
  0
INSERT
  8
PV
  2
*d10
 10
             .000000
 20
             .000000
 41
            1.000000
 42
            1.000000
 43
            1.000000
 50
             .000000
  0
INSERT
  8
PV
  2
*d11
 10
             .000000
 20
             .000000
 41
            1.000000
 42
            1.000000
 43
            1.000000
 50
             .000000
  0
INSERT
  8
PV
  2
*d11
 10
             .000000
 20
             .000000
 41
            1.000000
 42
            1.000000
 43
            1.000000
 50
             .000000
  0
INSERT
  8
PV
  2
*d12
 10
             .000000
 20
             .000000
 41
            1.000000
 42
            1.000000
 43
            1.000000
 50
             .000000
  0
INSERT
  8
PV
  2
*d12
 10
             .000000
 20
             .000000
 41
            1.000000
 42
            1.000000
 43
            1.000000
 50
             .000000
  0
INSERT
  8
PV
  2
*d13
 10
             .000000
 20
             .000000
 41
            1.000000
 42
            1.000000
 43
            1.000000
 50
             .000000
  0
INSERT
  8
PV
  2
*d13
 10
             .000000
 20
             .000000
 41
            1.000000
 42
            1.000000
 43
            1.000000
 50
             .000000
  0
INSERT
  8
PV
  2
*d14
 10
             .000000
 20
             .000000
 41
            1.000000
 42
            1.000000
 43
            1.000000
 50
             .000000
  0
INSERT
  8
PV
  2
*d14
 10
             .000000
 20
             .000000
 41
            1.000000
 42
            1.000000
 43
            1.000000
 50
             .000000
  0
INSERT
  8
PV
  2
*d15
 10
             .000000
 20
             .000000
 41
            1.000000
 42
            1.000000
 43
            1.000000
 50
             .000000
  0
INSERT
  8
PV
  2
*d15
 10
             .000000
 20
             .000000
 41
            1.000000
 42
            1.000000
 43
            1.000000
 50
             .000000
  0
INSERT
  8
PV
  2
*d16
 10
             .000000
 20
             .000000
 41
            1.000000
 42
            1.000000
 43
            1.000000
 50
             .000000
  0
INSERT
  8
PV
  2
*d16
 10
             .000000
 20
             .000000
 41
            1.000000
 42
            1.000000
 43
            1.000000
 50
             .000000
  0
INSERT
  8
PV
  2
*d17
 10
             .000000
 20
             .000000
 41
            1.000000
 42
            1.000000
 43
            1.000000
 50
             .000000
  0
INSERT
  8
PV
  2
*d17
 10
             .000000
 20
             .000000
 41
            1.000000
 42
            1.000000
 43
            1.000000
 50
             .000000
  0
INSERT
  8
PV
  2
*d18
 10
             .000000
 20
             .000000
 41
            1.000000
 42
            1.000000
 43
            1.000000
 50
             .000000
  0
INSERT
  8
PV
  2
*d18
 10
             .000000
 20
             .000000
 41
            1.000000
 42
            1.000000
 43
            1.000000
 50
             .000000
  0
INSERT
  8
PV
  2
*d19
 10
             .000000
 20
             .000000
 41
            1.000000
 42
            1.000000
 43
            1.000000
 50
             .000000
  0
INSERT
  8
PV
  2
*d19
 10
             .000000
 20
             .000000
 41
            1.000000
 42
            1.000000
 43
            1.000000
 50
             .000000
  0
INSERT
  8
PV
  2
*d20
 10
             .000000
 20
             .000000
 41
            1.000000
 42
            1.000000
 43
            1.000000
 50
             .000000
  0
INSERT
  8
PV
  2
*d20
 10
             .000000
 20
             .000000
 41
            1.000000
 42
            1.000000
 43
            1.000000
 50
             .000000
  0
INSERT
  8
PV
  2
*d21
 10
             .000000
 20
             .000000
 41
            1.000000
 42
            1.000000
 43
            1.000000
 50
             .000000
  0
INSERT
  8
PV
  2
*d21
 10
             .000000
 20
             .000000
 41
            1.000000
 42
            1.000000
 43
            1.000000
 50
             .000000
  0
INSERT
  8
PV
  2
*d22
 10
             .000000
 20
             .000000
 41
            1.000000
 42
            1.000000
 43
            1.000000
 50
             .000000
  0
INSERT
  8
PV
  2
*d22
 10
             .000000
 20
             .000000
 41
            1.000000
 42
            1.000000
 43
            1.000000
 50
             .000000
  0
INSERT
  8
PV
  2
*d23
 10
             .000000
 20
             .000000
 41
            1.000000
 42
            1.000000
 43
            1.000000
 50
             .000000
  0
INSERT
  8
PV
  2
*d23
 10
             .000000
 20
             .000000
 41
            1.000000
 42
            1.000000
 43
            1.000000
 50
             .000000
  0
INSERT
  8
PV
  2
*d24
 10
             .000000
 20
             .000000
 41
            1.000000
 42
            1.000000
 43
            1.000000
 50
             .000000
  0
INSERT
  8
PV
  2
*d24
 10
             .000000
 20
             .000000
 41
            1.000000
 42
            1.000000
 43
            1.000000
 50
             .000000
  0
INSERT
  8
PV
  2
*d25
 10
             .000000
 20
             .000000
 41
            1.000000
 42
            1.000000
 43
            1.000000
 50
             .000000
  0
INSERT
  8
PV
  2
*d25
 10
             .000000
 20
             .000000
 41
            1.000000
 42
            1.000000
 43
            1.000000
 50
             .000000
  0
LINE
  8
SA
 10
           89.005330
 20
           82.359990
 11
           94.685320
 21
           82.359990
  0
LINE
  8
SA
 10
           89.005330
 20
           57.509980
 11
           94.685320
 21
           57.509980
  0
LINE
  8
SA
 10
           83.325320
 20
          191.700000
 11
           83.325320
 21
             .000000
  0
LINE
  8
SA
 10
          100.365300
 20
          191.700000
 11
          100.365300
 21
             .000000
  0
LINE
  8
SA
 10
           86.875320
 20
          152.295000
 11
           86.875320
 21
          129.575000
  0
LINE
  8
SA
 10
           96.815320
 20
          150.875000
 11
           96.815320
 21
          130.995000
  0
LINE
  8
SA
 10
           86.875320
 20
          152.295000
 11
           89.005330
 21
          152.295000
  0
LINE
  8
SA
 10
           89.005330
 20
          150.875000
 11
           96.815320
 21
          150.875000
  0
LINE
  8
SA
 10
           89.005330
 20
          130.995000
 11
           96.815320
 21
          130.995000
  0
LINE
  8
SA
 10
           86.875320
 20
          129.575000
 11
           89.005330
 21
          129.575000
  0
LINE
  8
SA
 10
           89.005330
 20
           82.359990
 11
           89.005330
 21
           57.509980
  0
LINE
  8
SA
 10
           94.685320
 20
           82.359990
 11
           94.685320
 21
           57.509980
  0
LINE
  8
SA
 10
           96.815320
 20
          152.295000
 11
           96.815320
 21
          129.575000
  0
LINE
  8
SA
 10
           96.815320
 20
          152.295000
 11
           94.685320
 21
          152.295000
  0
LINE
  8
SA
 10
           94.685320
 20
          152.295000
 11
           94.685320
 21
          150.875000
  0
LINE
  8
SA
 10
           96.815320
 20
          129.575000
 11
           94.685320
 21
          129.575000
  0
LINE
  8
SA
 10
           94.685320
 20
          130.995000
 11
           94.685320
 21
          129.575000
  0
LINE
  8
SA
 10
           83.325320
 20
          191.700000
 11
          100.365300
 21
          191.700000
  0
LINE
  8
SA
 10
           83.325320
 20
             .000000
 11
          100.365300
 21
             .000000
  0
LINE
  8
SA
 10
           91.845320
 20
          187.795000
 11
           91.845320
 21
          177.145000
  6
CENTER
  0
LINE
  8
SA
 10
           97.170320
 20
          182.470000
 11
           86.520320
 21
          182.470000
  6
CENTER
  0
LINE
  8
SA
 10
           97.170320
 20
            9.229989
 11
           86.520320
 21
            9.229989
  6
CENTER
  0
LINE
  8
SA
 10
           91.845320
 20
           14.554990
 11
           91.845320
 21
            3.904988
  6
CENTER
  0
LINE
  8
SA
 10
           89.005330
 20
          152.295000
 11
           89.005330
 21
          129.575000
  0
CIRCLE
  8
SA
 10
           91.845320
 20
          182.470000
 40
            1.952499
  0
CIRCLE
  8
SA
 10
           91.845320
 20
          182.470000
 40
            3.549999
  0
CIRCLE
  8
SA
 10
           91.845320
 20
            9.229989
 40
            3.549999
  0
CIRCLE
  8
SA
 10
           91.845320
 20
            9.229989
 40
            1.952499
  0
ARC
  8
SA
 10
           91.845320
 20
            8.520000
 40
            8.520004
 50
          180.000000
 51
          360.000000
  6
CENTER
  0
ARC
  8
SA
 10
           91.845320
 20
          183.180000
 40
            8.519989
 50
             .000000
 51
          180.000000
  6
CENTER
  0
INSERT
  8
SA
  2
*d26
 10
             .000000
 20
             .000000
 41
            1.000000
 42
            1.000000
 43
            1.000000
 50
             .000000
  0
INSERT
  8
SA
  2
*d26
 10
             .000000
 20
             .000000
 41
            1.000000
 42
            1.000000
 43
            1.000000
 50
             .000000
  0
INSERT
  8
SA
  2
*d27
 10
             .000000
 20
             .000000
 41
            1.000000
 42
            1.000000
 43
            1.000000
 50
             .000000
  0
INSERT
  8
SA
  2
*d27
 10
             .000000
 20
             .000000
 41
            1.000000
 42
            1.000000
 43
            1.000000
 50
             .000000
  0
INSERT
  8
SA
  2
*d28
 10
             .000000
 20
             .000000
 41
            1.000000
 42
            1.000000
 43
            1.000000
 50
             .000000
  0
INSERT
  8
SA
  2
*d28
 10
             .000000
 20
             .000000
 41
            1.000000
 42
            1.000000
 43
            1.000000
 50
             .000000
  0
INSERT
  8
SA
  2
*d29
 10
             .000000
 20
             .000000
 41
            1.000000
 42
            1.000000
 43
            1.000000
 50
             .000000
  0
INSERT
  8
SA
  2
*d29
 10
             .000000
 20
             .000000
 41
            1.000000
 42
            1.000000
 43
            1.000000
 50
             .000000
  0
INSERT
  8
SA
  2
*d30
 10
             .000000
 20
             .000000
 41
            1.000000
 42
            1.000000
 43
            1.000000
 50
             .000000
  0
INSERT
  8
SA
  2
*d30
 10
             .000000
 20
             .000000
 41
            1.000000
 42
            1.000000
 43
            1.000000
 50
             .000000
  0
LINE
  8
DR
 10
           39.050030
 20
          -15.998860
 11
           39.050030
 21
          -27.358860
  0
LINE
  8
DR
 10
           39.050030
 20
          -15.998860
 11
            2.129999
 21
          -15.998860
  0
LINE
  8
DR
 10
           39.050030
 20
          -27.358860
 11
            2.129999
 21
          -27.358860
  0
LINE
  8
DR
 10
            2.129999
 20
          -30.198870
 11
             .000000
 21
          -30.198870
  0
LINE
  8
DR
 10
             .000000
 20
          -13.158860
 11
             .000000
 21
          -30.198870
  0
LINE
  8
DR
 10
            2.129999
 20
          -13.158860
 11
            2.129999
 21
          -30.198870
  0
LINE
  8
DR
 10
           34.435010
 20
          -15.288860
 11
           22.365020
 21
          -15.288860
  0
LINE
  8
DR
 10
           34.435010
 20
          -28.068860
 11
           22.365020
 21
          -28.068860
  0
LINE
  8
DR
 10
           22.365020
 20
          -15.288860
 11
           22.365020
 21
          -15.998860
  0
LINE
  8
DR
 10
           34.435010
 20
          -15.288860
 11
           34.435010
 21
          -15.998860
  0
LINE
  8
DR
 10
           12.070000
 20
          -15.288860
 11
           12.070000
 21
          -15.998860
  0
LINE
  8
DR
 10
           12.070000
 20
          -15.288860
 11
            2.129999
 21
          -15.288860
  0
LINE
  8
DR
 10
           12.070000
 20
          -28.068860
 11
            2.129999
 21
          -28.068860
  0
LINE
  8
DR
 10
           12.070000
 20
          -27.358860
 11
           12.070000
 21
          -28.068860
  0
LINE
  8
DR
 10
           22.365020
 20
          -27.358860
 11
           22.365020
 21
          -28.068860
  0
LINE
  8
DR
 10
           34.435010
 20
          -27.358860
 11
           34.435010
 21
          -28.068860
  0
LINE
  8
DR
 10
             .000022
 20
          -18.530150
 11
             .000011
 21
          -30.198870
  0
LINE
  8
DR
 10
             .000000
 20
          -16.708860
 11
           -8.520000
 21
          -16.708860
  0
LINE
  8
DR
 10
             .000000
 20
          -26.648860
 11
            -.763047
 21
          -26.648860
  0
LINE
  8
DR
 10
           -8.520000
 20
          -16.708860
 11
           -8.520000
 21
          -18.838870
  0
LINE
  8
DR
 10
           28.400010
 20
          -13.452810
 11
           28.400010
 21
          -29.911680
  6
CENTER
  0
LINE
  8
DR
 10
           39.050030
 20
          -17.418850
 11
            8.888082
 21
          -17.418850
  6
DASHED
  0
LINE
  8
DR
 10
           39.050030
 20
          -25.938860
 11
            2.129999
 21
          -25.938860
  6
DASHED
  0
LINE
  8
DR
 10
            2.129999
 20
          -13.158860
 11
             .000000
 21
          -13.158860
  0
LINE
  8
DR
 10
             .000000
 20
          -18.838870
 11
           -8.520000
 21
          -18.838870
  0
LINE
  8
DR
 10
           -8.519999
 20
          -18.838870
 11
            -.763051
 21
          -26.648850
  0
LINE
  8
DR
 10
            6.256095
 20
          -17.418850
 11
            2.129999
 21
          -17.418850
  6
DASHED
  0
INSERT
  8
DR
  2
*d31
 10
             .000000
 20
             .000000
 41
            1.000000
 42
            1.000000
 43
            1.000000
 50
             .000000
  0
INSERT
  8
DR
  2
*d31
 10
             .000000
 20
             .000000
 41
            1.000000
 42
            1.000000
 43
            1.000000
 50
             .000000
  0
INSERT
  8
DR
  2
*d32
 10
             .000000
 20
             .000000
 41
            1.000000
 42
            1.000000
 43
            1.000000
 50
             .000000
  0
INSERT
  8
DR
  2
*d32
 10
             .000000
 20
             .000000
 41
            1.000000
 42
            1.000000
 43
            1.000000
 50
             .000000
  0
LINE
  8
RA
 10
          -88.349380
 20
          -82.385040
 11
          121.650600
 21
          -82.385040
  0
LINE
  8
RA
 10
          -88.349380
 20
          214.615000
 11
          -88.349380
 21
          -82.385040
  0
LINE
  8
RA
 10
          121.650600
 20
          214.615000
 11
          121.650600
 21
          -82.385040
  0
LINE
  8
RA
 10
          -88.349380
 20
          214.615000
 11
          121.650600
 21
          214.615000
  0
LINE
  8
RA
 10
          -68.349380
 20
          209.615000
 11
          116.650600
 21
          209.615000
  0
LINE
  8
RA
 10
          116.650600
 20
          209.615000
 11
          116.650600
 21
          -77.385040
  0
LINE
  8
RA
 10
          -68.349380
 20
          -77.385040
 11
          116.650600
 21
          -77.385040
  0
LINE
  8
RA
 10
          -68.349380
 20
          209.615000
 11
          -68.349380
 21
          -77.385040
  0
LINE
  8
RA
 10
          -43.349380
 20
          -37.385040
 11
          116.650600
 21
          -37.385040
  0
LINE
  8
RA
 10
           76.650620
 20
          -37.385040
 11
           76.650620
 21
          -77.385040
  0
LINE
  8
RA
 10
          -43.349380
 20
          -37.385040
 11
          -43.349380
 21
          -77.385040
  0
LINE
  8
RA
 10
          -43.349380
 20
          -52.385040
 11
           76.650620
 21
          -52.385040
  0
LINE
  8
RA
 10
           71.264100
 20
          -12.416510
 11
           71.264100
 21
          -33.416500
  0
LINE
  8
RA
 10
           56.264100
 20
          -19.416500
 11
          111.264100
 21
          -19.416500
  0
LINE
  8
RA
 10
          -88.349380
 20
           66.114960
 11
          -78.349380
 21
           66.114960
  0
LINE
  8
RA
 10
         -105.753600
 20
          219.046900
 11
          125.444800
 21
          219.046900
  6
DOT
  0
LINE
  8
RA
 10
           79.264100
 20
          -19.416500
 11
           79.264100
 21
          -33.416500
  0
LINE
  8
RA
 10
           87.264100
 20
          -19.416500
 11
           87.264100
 21
          -33.416500
  0
LINE
  8
RA
 10
           95.264100
 20
          -19.416500
 11
           95.264100
 21
          -33.416500
  0
LINE
  8
RA
 10
          103.264100
 20
          -19.416500
 11
          103.264100
 21
          -33.416500
  0
LINE
  8
RA
 10
          111.264100
 20
          -12.416510
 11
          111.264100
 21
          -33.416500
  0
LINE
  8
RA
 10
          125.444800
 20
          219.046900
 11
          125.444800
 21
          -94.530820
  6
DOT
  0
LINE
  8
RA
 10
           71.264100
 20
          -26.416500
 11
          111.264100
 21
          -26.416500
  0
LINE
  8
RA
 10
           56.264100
 20
          -33.416500
 11
          111.264100
 21
          -33.416500
  0
LINE
  8
RA
 10
           56.264100
 20
          -12.416510
 11
          111.264100
 21
          -12.416510
  0
LINE
  8
RA
 10
           56.264100
 20
          -12.416510
 11
           56.264100
 21
          -33.416500
  0
LINE
  8
RA
 10
           89.084660
 20
          -12.416510
 11
           89.084660
 21
          -19.416500
  0
TEXT
  8
RA
 10
          -61.190770
 20
          -26.119510
 40
            3.000000
  1
gezeichnet DIN L
 50
             .000000
 41
             .714286
  0
TEXT
  8
RA
 10
          -61.190770
 20
          -30.405220
 40
            3.000000
  1
DIN R Spiegelbild
 50
             .000000
 41
             .714286
  0
TEXT
  8
RA
 10
           89.453110
 20
          -24.926770
 40
            3.000000
  1
35
 50
             .000000
 41
             .714286
  0
TEXT
  8
RA
 10
           81.621520
 20
          -24.926770
 40
            3.000000
  1
30
 50
             .000000
 41
             .714286
  0
TEXT
  8
RA
 10
           73.524120
 20
          -24.813000
 40
            3.000000
  1
25
 50
             .000000
 41
             .714286
  0
TEXT
  8
RA
 10
           61.949200
 20
          -27.380510
 40
            3.500000
  1
A
 50
             .000000
 41
             .714286
  0
TEXT
  8
RA
 10
           97.654910
 20
          -24.813000
 40
            3.000000
  1
40
 50
             .000000
 41
             .714286
  0
TEXT
  8
RA
 10
          105.277600
 20
          -24.775090
 40
            3.000000
  1
45
 50
             .000000
 41
             .714286
  0
TEXT
  8
RA
 10
           58.947960
 20
          -17.756520
 40
            3.500000
  1
Ausf.
 50
             .000000
 41
             .714286
  0
TEXT
  8
RA
 10
           73.397810
 20
          -31.724750
 40
            3.000000
  1
50
 50
             .000000
 41
             .714286
  0
TEXT
  8
RA
 10
           81.657640
 20
          -31.724750
 40
            3.000000
  1
55
 50
             .000000
 41
             .714286
  0
TEXT
  8
RA
 10
           89.532680
 20
          -31.579570
 40
            3.000000
  1
60
 50
             .000000
 41
             .714286
  0
TEXT
  8
RA
 10
           97.655700
 20
          -31.579570
 40
            3.000000
  1
65
 50
             .000000
 41
             .714286
  0
TEXT
  8
RA
 10
           75.620960
 20
          -17.831020
 40
            3.000000
  1
eckig
 50
             .000000
 41
             .714286
  0
TEXT
  8
RA
 10
           95.860080
 20
          -17.720000
 40
            3.000000
  1
abger.
 50
             .000000
 41
             .714286
  0
POLYLINE
  8
PV
 66
     1
 70
     0
 40
             .000000
 41
             .000000
  0
VERTEX
  8
PV
 10
           27.357050
 20
          125.776200
 40
             .000000
 41
             .000000
 42
             .000000
 70
     0
 50
             .000000
  0
VERTEX
  8
PV
 10
           25.528470
 20
          125.776200
 40
             .000000
 41
             .000000
 42
             .000000
 70
     0
 50
             .000000
  0
VERTEX
  8
PV
 10
           25.528470
 20
          123.825800
 40
             .000000
 41
             .000000
 42
             .000000
 70
     0
 50
             .000000
  0
VERTEX
  8
PV
 10
           27.357050
 20
          123.825800
 40
             .000000
 41
             .000000
 42
             .000000
 70
     0
 50
             .000000
  0
VERTEX
  8
PV
 10
           27.357050
 20
          125.776200
 40
             .000000
 41
             .000000
 42
             .000000
 70
     0
 50
             .000000
  0
SEQEND
  8
PV
  0
ENDSEC
  0
EOF
